PrimaNota.ru - самый крупный в мире бесплатный архив песенных текстов, аккордов, табулатур и нот


Wednesday 13 - Gimmie Gimmie Bloodshed - текст песни, бас-таба, видео

Регистрация Запомнить меня
Войти через:  Facebook Google Twitter Vk Yandex Mail.ru

Wednesday 13 - Gimmie Gimmie Bloodshed - текст песни, бас-таба, видео

Печатать
Просмотров: 117
-----------------------------------------------------------------------------
                             Gimmie Gimmie Bloodshed - Wednesday 13
-----------------------------------------------------------------------------
Tabbed by: Andu Needle
E-mail: sulfur_in_my_lungs@yahoo.com

Intro:

F|-------------------------------------------------------|
C|-------------------------------------------------------|
G|-----------------------------111-----------------------|
C|-22222-0-22222-5-22222-0-222---------------------------|(x2)

Verse:

F|-------------------------------------------------------|
C|-------------------------------------------------------|
G|-------------------------------------------------------|
C|-22222222(x4)-55555555(x2)-77777777(x2)----------------|(x2)

Chorus:

F|-------------------------------------------------------|
C|-------------------------------------------------------|
G|-----------------------------111-----------------------|
C|-22222-0-22222-5-22222-0-222---------------------------|(x2)

Verse 2 is the same as the first one!
The second chorus goes twice! The means you play that riff 4 times.

Bridge:

F|--------------------------------------------------------|
C|--------------------------------------------------------|
G|-3~--3-5---7--------------------------------------------|
C|---------7---9------------------------------------------|(x3)

F|--------------------------------------------------------|
C|--------------------------------------------------------|
G|--------------------------------------------------------|
C|-33333352-----------------------------------------------|

In the solo you play the chorus normally. That means you play the riff twice.

Interlude:

F|--------------------------------------------------------|
C|--------------------------------------------------------|
G|--------------------------------------------------------|
C|-2~--2~-------------------------------------------------|

And where Wednesday sings the chorus softly you play:

F|--------------------------------------------------------|
C|--------------------------------------------------------|
G|--------------------------------------------------------|
C|-22222222(x6)-------------------------------------------|

The last chorus is as the second chorus. That means you play that riff four times.
Добавлено: 07.06.2013
Другие материалы по этой песне:
  • Аккорды и текст

Страница создана 07.06.2013
http://primanota.ru/wednesday-13/gimmie-gimmie-bloodshed-chords.htm
Привет, Гость.
Предлагаем пройти революционный курс по гитаре.
Подарок от PrimaNota.Ru, забирай!