PrimaNota.ru - самый крупный в мире бесплатный архив песенных текстов, аккордов, табулатур и нот


Wednesday 13 - Gimme Gimme Bloodshed - таба, бас-таба, видео

Регистрация Запомнить меня
Войти через:  Facebook Google Twitter Vk Yandex Mail.ru

Wednesday 13 - Gimme Gimme Bloodshed - таба, бас-таба, видео

Печатать
Просмотров: 172
Уроки эстрадного вокала в Санкт-Петербурге
Tuning: from low to high, CGCfad


                     Intro (Both Guitars)
d----------------------------------------------------------------------------|
a----------------------------------------------------------------------------|
f----------------------------------------------------------------------------|
C-2-2-2-2-2-2-2-0--2-2-2-2-2-2-2-5--2-2-2-2-2-2-2-0--2-2-2-2-2-2-2-5-5-5-7---|
D-2-2-2-2-2-2-2-0--2-2-2-2-2-2-2-5--2-2-2-2-2-2-2-0--2-2-2-2-2-2-2-5-5-5-7---|
C-2-2-2-2-2-2-2-0--2-2-2-2-2-2-2-5--2-2-2-2-2-2-2-0--2-2-2-2-2-2-2-5-5-5-7---|


d----------------------------------------------------------------------------|
a----------------------------------------------------------------------------|
f----------------------------------------------------------------------------|
C-2-2-2-2-2-2-2-0--2-2-2-2-2-2-2-5--2-2-2-2-2-2-2-0--2-2-2-2-2-2-2-5-5-5-7---|
D-2-2-2-2-2-2-2-0--2-2-2-2-2-2-2-5--2-2-2-2-2-2-2-0--2-2-2-2-2-2-2-5-5-5-7---|
C-2-2-2-2-2-2-2-0--2-2-2-2-2-2-2-5--2-2-2-2-2-2-2-0--2-2-2-2-2-2-2-5-5-5-7---|


                    Verse Guitar 1 Play two times
d-------------------------------------------------------------|
a-------------------------------------------------------------|
f-------------------------------------------------------------|
C-2-2-2-2-2-2-2-2-2-2-2-2--5-5-5-5-5-5-5-5--7-7-7-7-7-7-7-7---|
G-2-2-2-2-2-2-2-2-2-2-2-2--5-5-5-5-5-5-5-5--7-7-7-7-7-7-7-7---|
C-2-2-2-2-2-2-2-2-2-2-2-2--5-5-5-5-5-5-5-5--7-7-7-7-7-7-7-7---|


   Verse Guitar 2 (comes in on the second time for Guitar one)
        
d--------------------------------------------------------------|
a--------------------------------------------------------------|
f--------------------------------------------------------------|
C-2-2-2-2-2-2-2-2-2-2-2-2--5-5-5-5-5-5-5-5--7-7-7-7-7-7-7-7----|
G--------------------------------------------------------------|
C--------------------------------------------------------------|    

                        Chorus Both Guitars

d----------------------------------------------------------------------------|
a----------------------------------------------------------------------------|
f----------------------------------------------------------------------------|
C-2-2-2-2-2-2-2-0--2-2-2-2-2-2-2-5--2-2-2-2-2-2-2-0--2-2-2-2-2-2-2-5-5-5-7---|
D-2-2-2-2-2-2-2-0--2-2-2-2-2-2-2-5--2-2-2-2-2-2-2-0--2-2-2-2-2-2-2-5-5-5-7---|
C-2-2-2-2-2-2-2-0--2-2-2-2-2-2-2-5--2-2-2-2-2-2-2-0--2-2-2-2-2-2-2-5-5-5-7---| 

d----------------------------------------------------------------------------|
a----------------------------------------------------------------------------|
f----------------------------------------------------------------------------|
C-2-2-2-2-2-2-2-0--2-2-2-2-2-2-2-5--2-2-2-2-2-2-2-0--2-2-2-2-2-2-2-5-5-5-7---|
D-2-2-2-2-2-2-2-0--2-2-2-2-2-2-2-5--2-2-2-2-2-2-2-0--2-2-2-2-2-2-2-5-5-5-7---|
C-2-2-2-2-2-2-2-0--2-2-2-2-2-2-2-5--2-2-2-2-2-2-2-0--2-2-2-2-2-2-2-5-5-5-7---|


 Verse Guitar 1 Play two times
d-------------------------------------------------------------|
a-------------------------------------------------------------|
f-------------------------------------------------------------|
C-2-2-2-2-2-2-2-2-2-2-2-2--5-5-5-5-5-5-5-5--7-7-7-7-7-7-7-7---|
G-2-2-2-2-2-2-2-2-2-2-2-2--5-5-5-5-5-5-5-5--7-7-7-7-7-7-7-7---|
C-2-2-2-2-2-2-2-2-2-2-2-2--5-5-5-5-5-5-5-5--7-7-7-7-7-7-7-7---|


   Verse Guitar 2 (comes in on the second time for Guitar one)
        
d--------------------------------------------------------------|
a--------------------------------------------------------------|
f--------------------------------------------------------------|
C-2-2-2-2-2-2-2-2-2-2-2-2--5-5-5-5-5-5-5-5--7-7-7-7-7-7-7-7----|
G--------------------------------------------------------------|
C--------------------------------------------------------------|

                             Chorus
a----------------------------------------------------------------------------|
f----------------------------------------------------------------------------|
C-2-2-2-2-2-2-2-0--2-2-2-2-2-2-2-5--2-2-2-2-2-2-2-0--2-2-2-2-2-2-2-5-5-5-7---|
D-2-2-2-2-2-2-2-0--2-2-2-2-2-2-2-5--2-2-2-2-2-2-2-0--2-2-2-2-2-2-2-5-5-5-7---|
C-2-2-2-2-2-2-2-0--2-2-2-2-2-2-2-5--2-2-2-2-2-2-2-0--2-2-2-2-2-2-2-5-5-5-7---| 

d----------------------------------------------------------------------------|
a----------------------------------------------------------------------------|
f----------------------------------------------------------------------------|
C-2-2-2-2-2-2-2-0--2-2-2-2-2-2-2-5--2-2-2-2-2-2-2-0--2-2-2-2-2-2-2-5-5-5-7---|
D-2-2-2-2-2-2-2-0--2-2-2-2-2-2-2-5--2-2-2-2-2-2-2-0--2-2-2-2-2-2-2-5-5-5-7---|
C-2-2-2-2-2-2-2-0--2-2-2-2-2-2-2-5--2-2-2-2-2-2-2-0--2-2-2-2-2-2-2-5-5-5-7---|

a----------------------------------------------------------------------------|
f----------------------------------------------------------------------------|
C-2-2-2-2-2-2-2-0--2-2-2-2-2-2-2-5--2-2-2-2-2-2-2-0--2-2-2-2-2-2-2-5-5-5-7---|
D-2-2-2-2-2-2-2-0--2-2-2-2-2-2-2-5--2-2-2-2-2-2-2-0--2-2-2-2-2-2-2-5-5-5-7---|
C-2-2-2-2-2-2-2-0--2-2-2-2-2-2-2-5--2-2-2-2-2-2-2-0--2-2-2-2-2-2-2-5-5-5-7---| 

d----------------------------------------------------------------------------|
a----------------------------------------------------------------------------|
f----------------------------------------------------------------------------|
C-2-2-2-2-2-2-2-0--2-2-2-2-2-2-2-5--2-2-2-2-2-2-2-0--2-2-2-2-2-2-2-5-5-5-7---|
D-2-2-2-2-2-2-2-0--2-2-2-2-2-2-2-5--2-2-2-2-2-2-2-0--2-2-2-2-2-2-2-5-5-5-7---|
C-2-2-2-2-2-2-2-0--2-2-2-2-2-2-2-5--2-2-2-2-2-2-2-0--2-2-2-2-2-2-2-5-5-5-7---|


               Bridge 1 Both Guitars

d----------------------------------------------|
a----------------------------------------------|
f----------------------------------------------|
C-7-7-5-7-5--7-7-5-7-5--7-7-5-7-5--5-5-5-5-5-2-|
G-7-7-5-7-5--7-7-5-7-5--7-7-5-7-5--5-5-5-5-5-2-|
C-7-7-5-7-5--7-7-5-7-5--7-7-5-7-5--5-5-5-5-5-2-|

                                Solo Guitar 2
d----------------------------------------------------------------------------------|
a------------------------------------8------------------------------------8-8h10p8-|
f-9-9-9-9-9-9-9-9-7--9-9-9-9-9-9-9-9---9-9-9-9-9-9-9-9-7--9-9-9-9-9-9-9-9----------|
C----------------------------------------------------------------------------------|
G----------------------------------------------------------------------------------|
C----------------------------------------------------------------------------------|

d-----------------------------------------------------------------------------------|
a------------------------------------8------------------------------------8-8h10/12-|
f-9-9-9-9-9-9-9-9-7--9-9-9-9-9-9-9-9---9-9-9-9-9-9-9-9-7--9-9-9-9-9-9-9-9-----------|
C-----------------------------------------------------------------------------------|
G-----------------------------------------------------------------------------------|
C-----------------------------------------------------------------------------------|

                              Guitar 1 During solo
a----------------------------------------------------------------------------|
f----------------------------------------------------------------------------|
C-2-2-2-2-2-2-2-0--2-2-2-2-2-2-2-5--2-2-2-2-2-2-2-0--2-2-2-2-2-2-2-5-5-5-7---|
D-2-2-2-2-2-2-2-0--2-2-2-2-2-2-2-5--2-2-2-2-2-2-2-0--2-2-2-2-2-2-2-5-5-5-7---|
C-2-2-2-2-2-2-2-0--2-2-2-2-2-2-2-5--2-2-2-2-2-2-2-0--2-2-2-2-2-2-2-5-5-5-7---| 

d----------------------------------------------------------------------------|
a----------------------------------------------------------------------------|
f----------------------------------------------------------------------------|
C-2-2-2-2-2-2-2-0--2-2-2-2-2-2-2-5--2-2-2-2-2-2-2-0--2-2-2-2-2-2-2-5-5-5-7---|
D-2-2-2-2-2-2-2-0--2-2-2-2-2-2-2-5--2-2-2-2-2-2-2-0--2-2-2-2-2-2-2-5-5-5-7---|
C-2-2-2-2-2-2-2-0--2-2-2-2-2-2-2-5--2-2-2-2-2-2-2-0--2-2-2-2-2-2-2-5-5-5-7---|

                              Second Bridge Guitar 1
d---|
a---|
f---|
C-2-|
G-2-|
C-2-|The chord is played a lot, if you know the song you'll know what to do.
                     Chorus Played two times by Guitar 1
d----------------------------------------------------------------------------|
a----------------------------------------------------------------------------|
f----------------------------------------------------------------------------|
C-2-2-2-2-2-2-2-0--2-2-2-2-2-2-2-5--2-2-2-2-2-2-2-0--2-2-2-2-2-2-2-5-5-5-7---|
G-2-2-2-2-2-2-2-0--2-2-2-2-2-2-2-5--2-2-2-2-2-2-2-0--2-2-2-2-2-2-2-5-5-5-7---|
C-2-2-2-2-2-2-2-0--2-2-2-2-2-2-2-5--2-2-2-2-2-2-2-0--2-2-2-2-2-2-2-5-5-5-7---| 

d----------------------------------------------------------------------------|
a----------------------------------------------------------------------------|
f----------------------------------------------------------------------------|
C-2-2-2-2-2-2-2-0--2-2-2-2-2-2-2-5--2-2-2-2-2-2-2-0--2-2-2-2-2-2-2-5-5-5-7---|
G-2-2-2-2-2-2-2-0--2-2-2-2-2-2-2-5--2-2-2-2-2-2-2-0--2-2-2-2-2-2-2-5-5-5-7---|
C-2-2-2-2-2-2-2-0--2-2-2-2-2-2-2-5--2-2-2-2-2-2-2-0--2-2-2-2-2-2-2-5-5-5-7---|

  Guitar 2 playes solo again without the Wah efect on the repeat of Guitar 1

  Well thats it, If you have the right sounds, I assure you will sound like the song       
Добавлено: 08.06.2013
Другие материалы по этой песне:

Страница создана 08.06.2013
http://primanota.ru/wednesday-13/gimme-gimme-bloodshed-chords.htm
Привет, Гость.
Предлагаем пройти революционный курс по гитаре.
Подарок от PrimaNota.Ru, забирай!