PrimaNota.ru - самый крупный в мире бесплатный архив песенных текстов, аккордов, табулатур и нот


Wednesday 13 - Fuck You In Memory Of - таба, видео

Регистрация Запомнить меня
Войти через:  Facebook Google Twitter Vk Yandex Mail.ru

Wednesday 13 - Fuck You In Memory Of - таба, видео

Печатать
Просмотров: 119
Уроки эстрадного вокала в Санкт-Петербурге
-------------------------------------------------------------------------------
                             Fuck You (In Memory Of.) - Wednesday 13
-------------------------------------------------------------------------------
Tabbed by: Lukky Sixx
Tuning: Drop C

Intro
D|-------------------------------------------------------|
A|-------------------------------------------------------|
A|---7------------7--7-----------------------------------|
F|---7---7----5---7--7--7----555--444--222--0------------|
G|---5---7----5---5--5--7----555--444--222--0------------|
C|-------7----5---------7----555--444--222--0------------|

Verse
D|-------------------------------------------------|
A|-------------------------------------------------|
A|--7-7777--------------------7-7777---------------|
F|--7-7777--7-7777---5-5555---7-7777---------------|2X
G|--5-5555--7-7777---5-5555---5-5555---------------|
C|----------7-7777---5-5555------------------------|

Pre Chorus
D|-------------------------------------------------------------------|
A|-------------------------------------------------------------------|
A|--7-7777---------------------7-7777-7-7777-------------------------|
F|--7-77777--7-7777--5-5555----7-7777-7-7777--7-7777--555-444-222-0--|
G|--5-5555---7-7777--5-5555----5-5555-5-5555--7-7777--555-444-222-0--|
C|-----------7-7777--5-5555-------------------7-7777--555-444-222-0--|
PM   I---I    I---I   I----I    I----I  I---I  I----I

Chorus 
D|--------------------------------------------------------|
A|--------------------------------------------------------|
A|--77777---------------77777-----------------------------|
F|--77777-777777-55555--77777-----------------------------|3X
G|--55555-777777-55555--55555-----------------------------| 
C|--------77777--55555------------------------------------|
Then 4th Time

D|------------------------------------------------|
A|------------------------------------------------|
A|--77777-----------------------------------------|
F|--77777---777777--------------------------------| 
G|--55555---777777-555-444-222-0------------------| 
C|----------777777-555-444-222-0------------------|

Post Chorus
D|---------------------------------------------------------------------|
A|---------------------------------------------------------------------|
A|--7-7777--------------------7-7777-7-7777----------------------------|
F|--7-77777-7-7777--5-5555----7-7777-7-7777--7-7777--555-444-222-0-----|
G|--5-5555--7-7777--5-5555----5-5555-5-5555--7-7777--555-444-222-0-----|
C|----------7-7777--5-5555-------------------7-7777--555-444-222-0-----|

Verse
D|----------------------------------------------|
A|----------------------------------------------|
A|--7-7777-------------------7-7777-------------|
F|--7-7777--7-7777---5-5555--7-7777-------------|  2X 
G|--5-5555--7-7777---5-5555--5-5555-------------|
C|----------7-7777---5-5555---------------------|

Pre Chorus
D|-------------------------------------------------------------------|
A|-------------------------------------------------------------------|
A|--7-7777---------------------7-7777-7-7777-------------------------|
F|--7-77777--7-7777--5-5555----7-7777-7-7777--7-7777--555-444-222-0--|
G|--5-5555---7-7777--5-5555----5-5555-5-5555--7-7777--555-444-222-0--|
C|-----------7-7777--5-5555-------------------7-7777--555-444-222-0--|
PM   I---I    I---I   I----I    I----I  I---I  I----I

Chorus 
D|--------------------------------------------------------|
A|--------------------------------------------------------|
A|--77777---------------77777-----------------------------|
F|--77777-777777-55555--77777-----------------------------|3X
G|--55555-777777-55555--55555-----------------------------| 
C|--------77777--55555------------------------------------|
Then 4th Time

D|------------------------------------------------|
A|------------------------------------------------|
A|--77777-----------------------------------------|
F|--77777---777777--------------------------------| 
G|--55555---777777-555-444-222-0------------------| 
C|----------777777-555-444-222-0------------------|

Brigde
D|---------------------------------------------------|
A|---------------------------------------------------|
A|---------------------------------------------------|
F|--99-7-9--X-X-X-X--99-7-9-7--5---55555555----------|
G|--99-7-9--X-X-X-X--99-7-9-7--5---55555555----------|
C|--99-7-9--X-X-X-X--99-7-9-7--5---55555555----------|
PM                                                             I--------I

D|---------------------------------------------|
A|---------------------------------------------|
A|---------------------------------------------|
F|--99-7-9---99-7-9-7---55555555---------------|
G|--99-7-9---99-7-9-7---55555555---------------|
C|--99-7-9---99-7-9-7---55555555---------------|
PM                                  I---------I

Solo
D|-----------------------------------------------|
A|-----------------------------------------------|
A|--77777------------------77777-----------------|
F|--77777--777777-55555----77777-----------------| 4x
G|--55555--777777-55555----55555-----------------| 
C|---------77777--55555--------------------------|

D|-------------------------------------------------------|
A|-------------------------------------------------------|
A|---7------------7--7-----------------------------------|
F|---7---7----5---7--7--7----555--444--222--0------------|
G|---5---7----5---5--5--7----555--444--222--0------------|
C|-------7----5---------7----555--444--222--0------------|
PM                                               I----------------I
 
Chorus 
D|--------------------------------------------------------|
A|--------------------------------------------------------|
A|--77777---------------77777-----------------------------|
F|--77777-777777-55555--77777-----------------------------|3X
G|--55555-777777-55555--55555-----------------------------| 
C|--------77777--55555------------------------------------|
Then 4th Time

D|------------------------------------------------|
A|------------------------------------------------|
A|--77777-----------------------------------------|
F|--77777---777777--------------------------------| 
G|--55555---777777-555-444-222-0------------------| 
C|----------777777-555-444-222-0------------------|

Outro (Louder "Fuck You")
D|--------------------------------------------------------|
A|--------------------------------------------------------|
A|--77777---------------77777-----------------------------|
F|--77777-777777-55555--77777-----------------------------|3X
G|--55555-777777-55555--55555-----------------------------| 
C|--------77777--55555------------------------------------|
Then 4th Time

D|------------------------------------------------|
A|------------------------------------------------|
A|--77777-----------------------------------------|
F|--77777---777777--------------------------------| 
G|--55555---777777-555-444-222-0------------------| 
C|----------777777-555-444-222-0------------------|

************************************
| PM - Palm Muted |
| X  - Dead Note  |
************************************
Добавлено: 23.11.2013
Другие материалы по этой песне:
  • Аккорды и текст

Страница создана 23.11.2013
http://primanota.ru/wednesday-13/fuck-you-in-memory-of-chords.htm
Привет, Гость.
Предлагаем пройти революционный курс по гитаре.
Подарок от PrimaNota.Ru, забирай!