PrimaNota.ru - самый крупный в мире бесплатный архив песенных текстов, аккордов, табулатур и нот


Wednesday 13 - Dead Carolina - текст песни, таба, видео

Регистрация Запомнить меня
Войти через:  Facebook Google Twitter Vk Yandex Mail.ru

Wednesday 13 - Dead Carolina - текст песни, таба, видео

Печатать
Просмотров: 155
DROP C (CGCFAD)
Tabbed: Lukky Sixx

INTRO - Both Guitars
D|-------------------------------|       
A|-------------------------------|       
F|-7-7777-2-2222-3-3333-5-5555---|       
C|-7-7777-2-2222-3-3333-5-5555---|  x2   
G|-5-5555-0-0000-1-1111-3-3333---|       
C|-0-----------------------------|       
  PM      PM     PM     PM

MAIN RIFF
Rhythm guitar

D|---------------------------|       
A|---------------------------|       
F|-77777-22222-33333-55555---|       
C|-77777-22222-33333-55555---|  x2   
G|-55555-00000-11111-33333---|       
C|---------------------------|   

Lead Guitar
    
D|-----------------------------------|       
A|-10---10---------------------------|       
F|---10~--9~-9h10~--10/12~-----------|       
C|-----------------------------------|  x2   
G|-----------------------------------|       
C|-----------------------------------|   

VERSE
Both Guitars

D|----------------|             D--------------|
A|----------------|             A--------------|
F|-777777-7-------|             F--777777--77--|
C|-777777-7-------|  x6 then    C--777777--77--|
G|-555555-5-------|             G--555555--55--|
C|-000000---------|             C--000000------|
PM-------|                      PM-------|

MAIN RIFF
Rhythm guitar

D|---------------------------|       
A|---------------------------|       
F|-77777-22222-33333-55555---|       
C|-77777-22222-33333-55555---|  x2   
G|-55555-00000-11111-33333---|       
C|---------------------------|   

Lead Guitar
    
D|-----------------------------------|       
A|-10---10---------------------------|       
F|---10~--9~-9h10~--10/12~-----------|       
C|-----------------------------------|  x2   
G|-----------------------------------|       
C|-----------------------------------|   

CHORUS
Both Guitars

D|--------------------------------|       
A|--------------------------------|       
F|-1010101010-99999-88888-77777---|       
C|-1010101010-99999-88888-77777---|  x2   
G|-8-8-8-8-8--77777-66666-55555---|       
C|--------------------------------| 

or

D|--------------------------------|       
A|--------------------------------|       
F|--------------------------------|       
C|-33333-22222-11111-00000--------|  x2   
G|-33333-22222-11111-00000--------|      
C|-33333-22222-11111-00000--------| 

VERSE
Both Guitars

D|----------------|             D--------------|
A|----------------|             A--------------|
F|-777777-7-------|             F--777777--77--|
C|-777777-7-------|  x6 then    C--777777--77--|
G|-555555-5-------|             G--555555--55--|
C|-000000---------|             C--000000------|
PM-------|                      PM-------|

MAIN RIFF
Rhythm guitar

D|---------------------------|       
A|---------------------------|       
F|-77777-22222-33333-55555---|       
C|-77777-22222-33333-55555---|  x2   
G|-55555-00000-11111-33333---|       
C|---------------------------|   

Lead Guitar
    
D|-----------------------------------|       
A|-10---10---------------------------|       
F|---10~--9~-9h10~--10/12~-----------|       
C|-----------------------------------|  x2   
G|-----------------------------------|       
C|-----------------------------------|   

CHORUS
Both Guitars

D|--------------------------------|       
A|--------------------------------|       
F|-1010101010-99999-88888-77777---|       
C|-1010101010-99999-88888-77777---|  x2   
G|-8-8-8-8-8--77777-66666-55555---|       
C|--------------------------------| 

or

D|--------------------------------|       
A|--------------------------------|       
F|--------------------------------|       
C|-33333-22222-11111-00000--------|  x2   
G|-33333-22222-11111-00000--------|      
C|-33333-22222-11111-00000--------| 

SOLO

Rhytm Guitar

D|----------------|             D--------------|
A|----------------|             A--------------|
F|-777777-7-------|             F--777777--77--|
C|-777777-7-------|x6 then      C--777777--77--|
G|-555555-5-------|             G--555555--55--|
C|-000000---------|             C--000000------|
PM-------|                      PM-------|

Lead Guitar
D|-----------------------------------|       
A|-----------------/15~-15~-15~-15~--|       
F|-/7~-7~-7~-7~-7~-------------------|       
C|-----------------------------------|   
G|-----------------------------------|       
C|-----------------------------------| 

D|---17-16-15-14-13-----|      
A|15---------------15---|       
F|----------------------|  3x     
C|----------------------|  
G|----------------------|       
C|----------------------| 

Third Time 
D|--17-16-15-14-13--------|
A|-15-------------15-15\--|


CHORUS
Both Guitars

D|--------------------------------|       
A|--------------------------------|       
F|-1010101010-99999-88888-77777---|       
C|-1010101010-99999-88888-77777---|  x5   
G|-8-8-8-8-8--77777-66666-55555---|       
C|--------------------------------| 

or

D|--------------------------------|       
A|--------------------------------|       
F|--------------------------------|       
C|-33333-22222-11111-00000--------|  x5   
G|-33333-22222-11111-00000--------|      
C|-33333-22222-11111-00000--------| 

OUTRO RIFF

D|----------------|             
A|----------------|             
F|-777777-7-------|             
C|-777777-7-------|x8 Then rhythm will be faster        
G|-555555-5-------|             
C|-000000---------|             
PM-------|
************************************
| /   slide up
| \   slide down
| ~   vibrato
| PM  Palm Mute
| h   Hammer on

************************************
Добавлено: 30.11.2013
Другие материалы по этой песне:
  • Аккорды и текст

Страница создана 30.11.2013
http://primanota.ru/wednesday-13/dead-carolina-chords.htm
Привет, Гость.
Предлагаем пройти революционный курс по гитаре.
Подарок от PrimaNota.Ru, забирай!