PrimaNota.ru - самый крупный в мире бесплатный архив песенных текстов, аккордов, табулатур и нот


Weatherhead - Burn - аккорды и текст, видео

Регистрация Запомнить меня
Войти через:  Facebook Google Twitter Vk Yandex Mail.ru

Weatherhead - Burn - аккорды и текст, видео

Печатать
Просмотров: 54
Burn
Weatherhead
"Burn"
WEATHERHEAD
WEATHERHEAD EP

TUNING: standard

CAPO: none



INTRO:

   F                C/E               Dm               C
e|--------3p1-----|---------0h1p0---|--------5p3/1p0-|--------0h1p0---|
B|------1-----1---|-------1-------1-|------3---------|------1-------1-|
G|----2---------2-|-----0-----------|----2-----------|----0-----------|
D|-3~-------------|--2~-------------|-0~-------------|----------------| x2
A|----------------|-----------------|----------------|-3~-------------|
E|----------------|-----------------|----------------|----------------|


F          C/E
 You're fragile
Dm     C
 I'm unbreakable
     F                  C/E               Dm   C
 But your eyes break me up like I'm frail
F      C/E
 I'm immortal
Dm       C
 But you kill me
           F                    C/E            Dm   C
 You're contagious, and I don't know where you came from



Bb                C
 You burned in my head
          Dm  C        Bb
 And I'll let you stay there
Bb                         C
 You burn right through my bed
         Dm    C       Bb
 You are all I want to breathe
Bb
 I guess that's being happy



INTERLUDE:

   F                C/E               Dm               C
e|--------3p1-----|---------0h1p0---|--------5p3/1p0-|--------0h1p0---|
B|------1-----1---|-------1-------1-|------3---------|------1-------1-|
G|----2---------2-|-----0-----------|----2-----------|----0-----------|
D|-3~-------------|--2~-------------|-0~-------------|----------------| x2
A|----------------|-----------------|----------------|-3~-------------|
E|----------------|-----------------|----------------|----------------|



F       C/E
 How am I allowed
Dm              C            F
 To breathe the same air you do?
        C/E  Dm    C
 I'm an open wound
          F          C/E
 Throwing coins into fountains so
     Dm           C         F
 You think I have hopes and dreams
                  C/E             Dm    C Bb
 Forgot to make a wish, 'cause it means nothing



Bb                C
 You burned in my head
          Dm  C        Bb
 And I'll let you stay there
Bb                         C
 You burn right through my bed
         Dm    C       Bb
 You are all I want to breathe
Bb
 I guess that's being...



F    C/E
 Happy, 'cause
Dm      C       F
 We'll wait for this
     C/E
 Happy, 'cause
Dm     C        F
 We starved for it
     C/E
 Happy, 'cause
Dm      C    F
 We're all depressed
         C/E
 I'm happy, 'cause
Dm  C     F
 I don't exist



F    C/E
 Happy, 'cause
Dm      C       F
 We'll wait for this
     C/E
 Happy, 'cause
Dm     C        F
 We starved for it
     C/E
 Happy, 'cause
Dm      C    F
 We're all depressed
         C/E
 I'm happy, 'cause
Dm  C     Dm
 I don't exist
Добавлено: 20.12.2015
Другие материалы по этой песне:
  • Аккорды и текст

Страница создана 20.12.2015
http://primanota.ru/weatherhead/burn-chords.htm
Привет, Гость.
Предлагаем пройти революционный курс по гитаре.
Подарок от PrimaNota.Ru, забирай!