PrimaNota.ru - самый крупный в мире бесплатный архив песенных текстов, аккордов, табулатур и нот


Weatherbox - The Compass - таба, видео

Регистрация Запомнить меня
Войти через:  Facebook Google Twitter Vk Yandex Mail.ru

Weatherbox - The Compass - таба, видео

Печатать
Просмотров: 79
Weatherbox
The Compass
Unreleased
Tabbed by: S2S (Cory McKnight)


This song has been stuck in my head since the first time I heard it several
months ago. I am hoping and praying that it makes it onto the new record!

Check it out here: http://www.youtube.com/watch?v=tEAvK8Do3XI



Intro/Main Riff: (Repeated throughout entire song)

e-------------------------------------------|
B--5p3p0-------------------------0----------|
G---------0--4--2--0-------0--------0-------|
D---------------------0h2-----2--------0----|
A-------------------------------------------|
E-------------------------------------------|


Verse Chords: ("What went wrong...")

e--0--0--0--0--0--0--0--0----0--0--0--0--0--0--0--0----|
B--0--0--0--0--0--0--0--0----0--0--0--0--0--0--0--0----|
G--0--0--0--0--0--0--0--0----0--0--0--0--0--0--0--0----|
D--5--5--5--5--5--5--5--5----5--5--5--5--5--5--5--5----|
A--3--3--3--3--3--3--3--3----x--x--x--x--x--x--x--x----|
E----------------------------3--3--3--3--3--3--3--3----|


Chorus Chords: (Play after "I did!")

e--0--0--0--0--0--0--0--0----0--0--0--0----0--0--0--0--0--0--0--0----0--0--0--0--|
B--0--0--0--0--0--0--0--0----0--0--0--0----0--0--0--0--0--0--0--0----3--3--3--3--|
G--0--0--0--0--0--0--0--0----0--0--0--0----0--0--0--0--0--0--0--0----0--0--0--0--|
D--5--5--5--5--5--5--5--5----5--5--5--5----5--5--5--5--5--5--5--5----2--2--2--2--|
A--3--3--3--3--3--3--3--3----x--x--x--x----3--3--3--3--3--3--3--3----3--3--3--3--|
E----------------------------3--3--3--3------------------------------------------|


Outro: (Play through the last measure)

e--3--3--3--3--3--3--3--3----|
B--3--3--3--3--3--3--3--3----|
G--0--0--0--0--0--0--0--0----|
D--2--2--2--2--2--2--2--2----|
A--3--3--3--3--3--3--3--3----|
E----------------------------|


That's really all there is to it. You can either play the main riff through
the whole song or switch between the main riff and the chords. If the band
includes a version of this song on the new record (possibly titled "Big News")
then I will update this tab when it comes out!
Добавлено: 01.11.2013
Другие материалы по этой песне:
  • Аккорды и текст

Страница создана 01.11.2013
http://primanota.ru/weatherbox/the-compass-chords.htm
Привет, Гость.
Предлагаем пройти революционный курс по гитаре.
Подарок от PrimaNota.Ru, забирай!