PrimaNota.ru - самый крупный в мире бесплатный архив песенных текстов, аккордов, табулатур и нот


Weatherbox - Love Me A Good Microcosm - таба, видео

Регистрация Запомнить меня
Войти через:  Facebook Google Twitter Vk Yandex Mail.ru

Weatherbox - Love Me A Good Microcosm - таба, видео

Печатать
Просмотров: 64
Weatherbox
"Love Me a Good Microcosm"
The Cosmic Drama
Tabbed By: S2S (Cory McKnight)

Tuning: C G C E G C

If you're familiar with Brian's "Weathertuning", just drop it down a
full step and you're all set. This song is played entirely with
fingerpicking and the rhythm never really changes. Strum down and
up continuously between the bass notes and the open strings. There's
quite a few bass note changes so I will try my best to condense it all
down into easily understandable parts. The rest is up to you.


Intro #1:

C-----0----0----0----0----0----0----0----0----|
G-----0----0----0----0----0----0----0----0----|
E-----0----0----0----0----0----0----0----0----|
C---------------------------------------------|
G---------------------------------------------|
C--0-----0-----0-----0-----0-----0-----0------|

Intro #2:
"I'll be the bright white light..."

C-----0--------0---------0---------0-------|
G-----0--------0---------0---------0-------|
E-----0--------0---------0---------0-------|
C------------------------------------------|
G------------------------------------------|
C--0-(x4)----5-(x4)----7-(x4)----5-(x4)----|

Intro #3:
"Oh that it's time to go home..."

C-----0--------0---------0---------0---------0---------0-----|
G-----0--------0---------0---------0---------0---------0-----|
E-----0--------0---------0---------0---------0---------0-----|
C------------------------------------------------------------|
G------------------------------------------------------------|
C--0-(x4)----5-(x4)----7-(x4)----5-(x4)----7-(x4)----5-(x4)--|

Verse #1:
"Oh I wonder what it would be like..."

C----0----0----0----------0----0----0----|
G----0----0----0----------0----0----0----|
E----0----0----0----------0----0----0----|
C----------------------------------------|
G----------------------------------------|
C--9----7----5----------9----7----5------|

Verse #2:
"I'd probably smile every time I sang..."

C----0----0----0----0---0----0-----0----0----|
G----0----0----0----0---0----0-----0----0----|
E----0----0----0----0---0----0-----0----0----|
C--------------------------------------------|
G--------------------------------------------|
C--7----5----7----5----7----5----7----5------|


Repeat Verse #1: "Oh I don't believe..."

Repeat Verse #2: "I know it's not easy being green..."

Repeat Verse #1: "You're just a moon..."


Verse #3:
"But when my supernova hits..."

C----0----0----0----0---0----0-----0----0----|
G----0----0----0----0---0----0-----0----0----|
E----0----0----0----0---0----0-----0----0----|
C--------------------------------------------|
G--------------------------------------------|
C--7----5----7----5----7----5----7----5------|

Verse #4:
"When my supernova splits..."

C-----0--------0---------0---------0-------|
G-----0--------0---------0---------0-------|
E-----0--------0---------0---------0-------|
C------------------------------------------|
G------------------------------------------|
C--0-(x4)----5-(x4)----7-(x4)----5-(x4)----|


Repeat Verse #1: "And you can tell the tale of the flame..."


Verse #5:
"So 666, you can call me a beast..."

C----0---------0---------0-------|
G----0---------0---------0-------|
E----0---------0---------0-------|
C--------------------------------|
G--------------------------------|
C--2-(x4)----4-(x4)----5-(x8)----|

Verse #6:
"And when I hear the doorbell..."

C----0---------0---------0---------0-------|
G----0---------0---------0---------0-------|
E----0---------0---------0---------0-------|
C------------------------------------------|
G------------------------------------------|
C--2-(x2)----4-(x2)----5-(x2)----7-(x2)----|

Outro #1:
"I'll be the bright white light..."

C-----0----0----0----0----0----0----0----0----|
G-----0----0----0----0----0----0----0----0----|
E-----0----0----0----0----0----0----0----0----|
C---------------------------------------------|
G---------------------------------------------|
C--0-----0-----0-----0-----0-----0-----0------|

Outro #2:
"Oh that it's time to go home..."

C-----0--------0---------0---------0---------0---------0---------0--|
G-----0--------0---------0---------0---------0---------0---------0--|
E-----0--------0---------0---------0---------0---------0---------0--|
C-------------------------------------------------------------------|
G-------------------------------------------------------------------|
C--0-(x4)----5-(x4)----7-(x4)----5-(x4)----7-(x4)----5-(x4)----7----|
Добавлено: 29.07.2013
Другие материалы по этой песне:
  • Аккорды и текст

Страница создана 29.07.2013
http://primanota.ru/weatherbox/love-me-a-good-microcosm-chords.htm
Привет, Гость.
Предлагаем пройти революционный курс по гитаре.
Подарок от PrimaNota.Ru, забирай!