PrimaNota.ru - самый крупный в мире бесплатный архив песенных текстов, аккордов, табулатур и нот


Weary Eyes - World Wont Get Better But You Will - таба, видео

Регистрация Запомнить меня
Войти через:  Facebook Google Twitter Vk Yandex Mail.ru

Weary Eyes - World Wont Get Better But You Will - таба, видео

Печатать
Просмотров: 61
Weary Eyes bandcamp page: https://wearyeyes.bandcamp.com/
World Won't Get Better But You Will (Acoustic) Video: https://www.youtube.com/watch?v=RGx0XNTAi30

Part 1a: (The strumming pattern sounds improvised, but this pattern works)
e|------------------------------------------------------------------|
B|-5--5555--5555-552--2222--2222-220--0000--0000-004--4444--4444-44-|
G|-6--6666--6666-662--2222--2222-220--0000--1111-114--4444--4444-44-|
D|-6--6666--6666-662--2222--2222-221--1111--1111-112--2222--2222-22-|
A|-4--4444--4444-440--0000--0000-002--2222--2222-222--2222--2222-22-|
E|---------------------------------0--0000--0000-00-----------------|

e|------------------------------------------------------------------|
B|-5--5555--5555-552--2222--2222-220--0000--0000-004--4444--4444-44-|
G|-6--6666--6666-662--2222--2222-220--0000--1111-114--4444--4444-44-|
D|-6--6666--6666-662--2222--2222-221--1111--1111-112--2222--2222-22-|
A|-4--4444--4444-440--0000--0000-002--2222--2222-222--2222--2222-22-|
E|---------------------------------0--0000--0000-00-----------------|

e|------------------------------------------------------------------|
B|-5--5555--5555-552--2222--2222-220--0000--0000-004--4444--4444-44-|
G|-6--6666--6666-662--2222--2222-220--0000--1111-114--4444--4444-44-|
D|-6--6666--6666-662--2222--2222-221--1111--1111-112--2222--2222-22-|
A|-4--4444--4444-440--0000--0000-002--2222--2222-222--2222--2222-22-|
E|---------------------------------0--0000--0000-00-----------------|

e|------------------------------------------------------------------|
B|-5--5555--5555-552--2222--2222-220--0000--0000-004--4444--4444-44-|
G|-6--6666--6666-662--2222--2222-220--0000--1111-114--4444--4444-44-|
D|-6--6666--6666-662--2222--2222-221--1111--1111-112--2222--2222-22-|
A|-4--4444--4444-440--0000--0000-002--2222--2222-222--2222--2222-22-|
E|---------------------------------0--0000--0000-00-----------------|

Part 2a:
e|-4---4-----4---4-4---4-----4---4---4-9------9----9---------4----------|
B|-5-5-----5---5---5-5-----5---5---5---10-10---10---10----4-------4---2-|
G|-6------6--------6------6------------11---11---11-----4--4---4-4-4--2-|
D|-7---------------7-------------------11--------------4----4-------4-2-|
A|-0--0--0--0-0-0--0--0--0--0-0-0-0-0--0--------------2--2----2-2-----0-|
E|----------------------------------------------------------------------|

e|-4---4-----4---4-4---4-----4---4---4-9------9----9---------4----------|
B|-5-5-----5---5---5-5-----5---5---5---10-10---10---10----4-------4---2-|
G|-6------6--------6------6------------11---11---11-----4--4---4-4-4--2-|
D|-7---------------7-------------------11--------------4----4-------4-2-|
A|-0--0--0--0-0-0--0--0--0--0-0-0-0-0--0--------------2--2----2-2-----0-|
E|----------------------------------------------------------------------|

Part 3a: 
e|-------------------------------|
B|-----------------4---4-4445--5-|
G|-2---2-2224--4-444---4-4446--6-|
D|-2---2-2224--4-442---2-2226--6-|
A|-0---0-0002--2-222---2-2224--4-|
E|-------------------------------|

e|-------------------------------|
B|-----------------4---4-4445--5-|
G|-2---2-2221--1-114---4-4446--6-|
D|-2---2-2222--2-222---2-2226--6-|
A|-0---0-0002--2-222---2-2224--4-|
E|----------0--0-00--------------|

e|-------------------------------|
B|-----------------4---4-4445--5-|
G|-2---2-2224--4-444---4-4446--6-|
D|-2---2-2224--4-442---2-2226--6-|
A|-0---0-0002--2-222---2-2224--4-|
E|-------------------------------|

e|-------------------------------|
B|-----------------4---4-4445--5-|
G|-2---2-2221--1-114---4-4446--6-|
D|-2---2-2222--2-222---2-2226--6-|
A|-0---0-0002--2-222---2-2224--4-|
E|----------0--0-00--------------|

e|-------------------------------|
B|-----------------4---4-4445--5-|
G|-2---2-2224--4-444---4-4446--6-|
D|-2---2-2224--4-442---2-2226--6-|
A|-0---0-0002--2-222---2-2224--4-|
E|-------------------------------|

e|-------------------|
B|-----------------5-|
G|-2---2-2221--1-116-|
D|-2---2-2222--2-226-|
A|-0---0-0002--2-224-|
E|----------0--0-00--|

Part 4: 
e|-------------------------------------------------------------|
B|-----0-----0-----0-----0-----5-----9-----5-----9-----7-----7-|
G|---6-----6-----6-----6-----6-----6-----6-----6-----8-----8---|
D|-------------------------------------------------------------|
A|-4--4--4--4--4--4--4--4--0--0--0--0--0--0--0--0--7--7--7--7--|
E|-------------------------------------------------------------|

e|-------------------------------------------------------------|
B|-----0-----0-----0-----0-----5-----9-----5-----9-----7-----7-|
G|---6-----6-----6-----6-----6-----6-----6-----6-----8-----8---|
D|-------------------------------------------------------------|
A|-4--4--4--4--4--4--4--4--0--0--0--0--0--0--0--0--7--7--7--7--|
E|-------------------------------------------------------------|

Part 5: 
e|---------4-|
B|---------5-|
G|---------6-|
D|---------7-|
A|-4-------0-|
E|-----------|

e|-12-11---1112-11----12-11---|
B|------12---------11------12-|
G|----------------------------|
D|----------------------------|
A|----------------------------|
E|----------------------------|

e|------------4-|
B|------------5-|
G|------------6-|
D|----2h4-2/6-7-|
A|-2h4--------0-|
E|--------------|

e|-12-11---1112-11----12-11---|
B|------12---------11------12-|
G|----------------------------|
D|----------------------------|
A|----------------------------|
E|----------------------------|

e|------------4--------------4----|
B|------------5----------------5--|
G|------------6------------------6|
D|----2h4-2/6-7-------------------|
A|-2h4--------0-------------------|
E|--------------------------------|

e|-12-11---1112-11----12-11---|
B|------12---------11------12-|
G|----------------------------|
D|----------------------------|
A|----------------------------|
E|----------------------------|

e|------------4--------------4----|
B|------------5----------------5--|
G|------------6------------------6|
D|----2h4-2/6-7-------------------|
A|-2h4--------0-------------------|
E|--------------------------------|

e|-12-11---1112-11----12-11---|
B|------12---------11------12-|
G|----------------------------|
D|----------------------------|
A|----------------------------|
E|----------------------------|

e|------------|
B|------------|
G|------------|
D|----2h4-2/6-|
A|-2h4--------|
E|------------|

Part 6:
e|------------------------------------------------------|
B|--10--10--10--10--9--9--9--9--5--5--5--5--2--2--2--2--|
G|----9---9---9---9--9--9--9--9--6--6--6--6--4--4--0--0-|
D|-7---7---7---7----------------------------------------|
A|-----------------7--7--7--7--4--4--4--4--2--2--0--0---|
E|------------------------------------------------------|

e|------------------------------------------------------|
B|--10--10--10--10--9--9--9--9--5--5--5--5--2--2--2--2--|
G|----9---9---9---9--9--9--9--9--6--6--6--6--4--4--0--0-|
D|-7---7---7---7----------------------------------------|
A|-----------------7--7--7--7--4--4--4--4--2--2--0--0---|
E|------------------------------------------------------|

Part 3b:
e|-------------------------------|
B|-----------------4---4-4445--5-|
G|-2---2-2224--4-444---4-4446--6-|
D|-2---2-2224--4-442---2-2226--6-|
A|-0---0-0002--2-222---2-2224--4-|
E|-------------------------------|

e|-------------------------------|
B|-----------------4---4-4445--5-|
G|-2---2-2221--1-114---4-4446--6-|
D|-2---2-2222--2-222---2-2226--6-|
A|-0---0-0002--2-222---2-2224--4-|
E|----------0--0-00--------------|

e|-------------------------------|
B|-----------------4---4-4445--5-|
G|-2---2-2224--4-444---4-4446--6-|
D|-2---2-2224--4-442---2-2226--6-|
A|-0---0-0002--2-222---2-2224--4-|
E|-------------------------------|

e|-------------------------------|
B|-----------------4---4-4445--5-|
G|-2---2-2221--1-114---4-4446--6-|
D|-2---2-2222--2-222---2-2226--6-|
A|-0---0-0002--2-222---2-2224--4-|
E|----------0--0-00--------------|

e|-------------------------------|
B|-----------------4---4-4445--5-|
G|-2---2-2224--4-444---4-4446--6-|
D|-2---2-2224--4-442---2-2226--6-|
A|-0---0-0002--2-222---2-2224--4-|
E|-------------------------------|

e|-------------------------------|
B|-----------------4---4-4445--5-|
G|-2---2-2221--1-114---4-4446--6-|
D|-2---2-2222--2-222---2-2226--6-|
A|-0---0-0002--2-222---2-2224--4-|
E|----------0--0-00--------------|

Part 2b:
e|-4---4-----4---4-4---4-----4---4---4-9------9----9---|
B|-5-5-----5---5---5-5-----5---5---5---10-10---10---10-|
G|-6------6--------6------6------------11---11---11----|
D|-7---------------7-------------------11--------------|
A|-0--0--0--0-0-0--0--0--0--0-0-0-0-0--0---------------|
E|-----------------------------------------------------|

e|-4---4-----4---4-4---4-----4---4---4-9------9----9-----|
B|-5-5-----5---5---5-5-----5---5---5---10-10---10---10-6-|
G|-6------6--------6------6------------11---11---11----5-|
D|-7---------------7-------------------11--------------5-|
A|-0--0--0--0-0-0--0--0--0--0-0-0-0-0--0---------------4-|
E|-------------------------------------------------------|

Part 1b:
e|------------------------------------------------------------------|
B|-5--5555--5555-552--2222--2222-220--0000--0000-004--4444--4444-44-|
G|-6--6666--6666-662--2222--2222-220--0000--1111-114--4444--4444-44-|
D|-6--6666--6666-662--2222--2222-221--1111--1111-112--2222--2222-22-|
A|-4--4444--4444-440--0000--0000-002--2222--2222-222--2222--2222-22-|
E|---------------------------------0--0000--0000-00-----------------|

e|------------------------------------------------------------------|
B|-5--5555--5555-552--2222--2222-220--0000--0000-004--4444--4444-44-|
G|-6--6666--6666-662--2222--2222-220--0000--1111-114--4444--4444-44-|
D|-6--6666--6666-662--2222--2222-221--1111--1111-112--2222--2222-22-|
A|-4--4444--4444-440--0000--0000-002--2222--2222-222--2222--2222-22-|
E|---------------------------------0--0000--0000-00-----------------|

e|------------------------------------------------------------------|
B|-5--5555--5555-552--2222--2222-220--0000--0000-004--4444--4444-44-|
G|-6--6666--6666-662--2222--2222-220--0000--1111-114--4444--4444-44-|
D|-6--6666--6666-662--2222--2222-221--1111--1111-112--2222--2222-22-|
A|-4--4444--4444-440--0000--0000-002--2222--2222-222--2222--2222-22-|
E|---------------------------------0--0000--0000-00-----------------|

e|-----------------------------------------------------------------|
B|-5--5555--5555-552--2222--2222-220--0000--0000-00444444444444444-|
G|-6--6666--6666-662--2222--2222-220--0000--1111-11444444444444444-|
D|-6--6666--6666-662--2222--2222-221--1111--1111-11222222222222222-|
A|-4--4444--4444-440--0000--0000-002--2222--2222-22222222222222222-|
E|---------------------------------0--0000--0000-00----------------|

---------------------------------------------------------------------

| h     hammer-on
| /     slide up
Добавлено: 29.11.2015
Другие материалы по этой песне:
  • Аккорды и текст

Страница создана 29.11.2015
http://primanota.ru/weary-eyes/world-wont-get-better-but-you-will-chords.htm
Привет, Гость.
Предлагаем пройти революционный курс по гитаре.
Подарок от PrimaNota.Ru, забирай!