PrimaNota.ru - самый крупный в мире бесплатный архив песенных текстов, аккордов, табулатур и нот


Wearing Scars - Would You Lie - таба, видео

Регистрация Запомнить меня
Войти через:  Facebook Google Twitter Vk Yandex Mail.ru

Wearing Scars - Would You Lie - таба, видео

Печатать
Просмотров: 93
-------------------------------------------------------------------------------
                     Would You Lie (Solo) - Wearing Scars
-------------------------------------------------------------------------------
Tabbed by: Roie Meltzer
E-mail: roiemeltzer@gmail.com

Tuning: e-B-G-D-A-E

my cover: https://www.youtube.com/watch?v=_PKgPcikON4

chords through the solo are just C, D and E power chords
(figure out the rythem by youself lazy people! :])


e|---------------------------------------------------------------------------|
B|---8--10--7--8-----7-------------------------------------------------------|
G|----------------9-----7--9-----7-------------------------------------------|
D|----------------------------9-----7--9------7------------------------------|
A|----------------------------------------10-----9--10--9h10p9--7~-----------|
E|---------------------------------------------------------------------------|

e|-----------------------------------------------------12-----15b(17)~-------|
B|----------------------12------15b(17)r(15)b(17)~--------12-----------------|
G|---------------12--------12------------------------------------------------|
D|----9----12--9----12-------------------------------------------------------|
A|--7---10-------------------------------------------------------------------|
E|---------------------------------------------------------------------------|

e|--12--15--14h15p14p12--------------12h15-12-------17b(19)~--pbr17p15-------|
B|----------------------15-----12h15----------15-----------------------------|
G|-------------------------14------------------------------------------------|
D|---------------------------------------------------------------------------|
A|---------------------------------------------------------------------------|
E|---------------------------------------------------------------------------|

e|--20b(22)~--pbr20----19--17-----19---19br(20)~-----------------------------|
B|---------------------------------------------------------------------------|
G|---------------------------------------------------------------------------|
D|---------------------------------------------------------------------------|
A|---------------------------------------------------------------------------|
E|---------------------------------------------------------------------------|

e|---------------7h10-/-14h15-14b(15)---19p15----------------------------15--|
B|-----------7h8------------------------------19p15----------------15-19-----|
G|---------7----------------------------------------16----------16-----------|
D|-------9---------------------------------------------17----17--------------|
A|--7h10--------------------------------------------------19-----------------|
E|---------------------------------------------------------------------------|

e|---19-19-15-----22b(24)r(22)b(24)~~----------------------------------------|
B|------------19-------------------------------------------------------------|
G|---------------------------------------------------------------------------|
D|---------------------------------------------------------------------------|
A|---------------------------------------------------------------------------|
E|---------------------------------------------------------------------------|

hope you enjoy!

************************************
| /   slide up
| \   slide down
| h   hammer-on
| p   pull-off
| ~   vibrato
| +   harmonic
| x   Mute note
| b   Bend
| pb  Pre-bend
| br  Bend release
| pbr Pre-bend release
| brb Bend release bend
************************************
Добавлено: 01.06.2016
Вам также может быть интересно:
Другие материалы по этой песне:
  • Аккорды и текст

Страница создана 01.06.2016
http://primanota.ru/wearing-scars/would-you-lie-chords.htm
Привет, Гость.
Предлагаем пройти революционный курс по гитаре.
Подарок от PrimaNota.Ru, забирай!