PrimaNota.ru - самый крупный в мире бесплатный архив песенных текстов, аккордов, табулатур и нот


Wearing Scars - Just Had To Let You Know - таба, видео

Регистрация Запомнить меня
Войти через:  Facebook Google Twitter Vk Yandex Mail.ru

Wearing Scars - Just Had To Let You Know - таба, видео

Печатать
Просмотров: 101
-------------------------------------------------------------------------------
                 Just Had To Let You Know - Wearing Scars
-------------------------------------------------------------------------------
Tabbed by: roie meltzer
E-mail: roiemeltzer@gmail.com

Tuning: e-B-G-D-A-E (standard)

e|---------------------------------------------------------------------------|
B|---10b(12)~~----------12b(13)r12---10\8---10b(12)r-------------------------|
G|-----------------------------------------------------9--9~~----------------|
D|---------------------------------------------------------------------------|
A|---------------------------------------------------------------------------|
E|---------------------------------------------------------------------------|

e|---------------------------------------------------------------------------|
B|---------------------------------------------------------------------------|
G|---11br--9-\7----7--9------------------------------------------------------|
D|-----------------------7~--9---5~---7---4~--5p4----------------------------|
A|-------------------------------------------------7-6--6~-------------------|
E|---------------------------------------------------------------------------|

e|---------------------------------------------------------------------------|
B|------------------------------------12-11-10---------10/12-17-12--15b(17)~-|
G|---------------------------9------9----------12-9-12-----------------------|
D|-----9-7-8-9-8-7---------7---9-12------------------------------------------|
A|--6--------------10-7-10---------------------------------------------------|
E|---------------------------------------------------------------------------|

e|--12----15b(17)~r15-12---17b(19)-T18-r17-15-17~----------------------------|  T=Tap and p.o.
B|-----12--------------------------------------------------------------------|
G|---------------------------------------------------------------------------|
D|---------------------------------------------------------------------------|
A|---------------------------------------------------------------------------|
E|---------------------------------------------------------------------------|

e|--15-14h15p14\12-------------------------------------------------------------|
B|-----------------13----------------------------------------------------------|
G|--------------------12\9-11-12p11p9-----------------------------------12-16--|
D|------------------------------------10--------------------------10-14--------|
A|---------------------------------------10-7-9-10p9-7-------7-10--------------|
E|-----------------------------------------------------8-7-8-------------------|

e|--------15-19-17----20-17-19-20-19-17--------------------------------------|
B|--15-17-------------------------------20-19-17-16-17-19-17-16--------------|
G|--------------------------------------------------------------17-14--------|
D|---------------------------------------------------------------------------|
A|---------------------------------------------------------------------------|
E|---------------------------------------------------------------------------|

e|---------14h15h17p15p14-------------------14-15-17----------15-17-19--22b(24)~-|
B|------17-----------------17------13-15-17----------15-17-19--------------------|
G|---17-----------------------16-------------------------------------------------|
D|-------------------------------------------------------------------------------|
A|-------------------------------------------------------------------------------|
E|-------------------------------------------------------------------------------|


************************************

| /   slide up
| \   slide down
| h   hammer-on
| p   pull-off
| ~   vibrato
| +   harmonic
| x   Mute note
| b   Bend
| pb  Pre-bend
| br  Bend release
| pbr Pre-bend release
| brb Bend release bend

************************************
Добавлено: 01.06.2016
Вам также может быть интересно:
Другие материалы по этой песне:
  • Аккорды и текст

Страница создана 01.06.2016
http://primanota.ru/wearing-scars/just-had-to-let-you-know-chords.htm
Привет, Гость.
Предлагаем пройти революционный курс по гитаре.
Подарок от PrimaNota.Ru, забирай!