PrimaNota.ru - самый крупный в мире бесплатный архив песенных текстов, аккордов, табулатур и нот


Weapons - Out Of Time - таба, видео

Регистрация Запомнить меня
Войти через:  Facebook Google Twitter Vk Yandex Mail.ru

Weapons - Out Of Time - таба, видео

Печатать
Просмотров: 126
Уроки эстрадного вокала в Санкт-Петербурге
brilliant song, i believe it should all be correct
(standard tuning)

INTRO clean
e|-------------------|
b|-------------------|
g|-9-9-9-9-9-9-9-9-9-|x4
d|-------------------|
a|-------------------|
E|-------------------|

VERSE clean
e||-----------------------------|-------------------------|
b||--12-12-12-12-12-12-12-12-12-|-13-13-13-13-13-13-13-13-|
g||o-9--9--9--9--9--9--9--9--9--|-9--9--9--9--9--9--9--9--|
d||o----------------------------|-------------------------|
a||-----------------------------|-------------------------|
E||-----------------------------|-------------------------|
                                                         
e|-------------------------|----------------------------|
b|-10-10-10-10-10-10-10-10-|-12-12-12-12-12-12-12-12-12-|
g|-9--9--9--9--9--9--9--9--|-9--9--9--9--9--9--9--9--9--| 
d|-------------------------|----------------------------|
a|-------------------------|----------------------------|
E|-------------------------|----------------------------|

e|-------------------|-------------------------|
b|-8-8-8-8-8-8-8-8-8-|-10-10-10-10-10-10-10-10-|
g|-9-9-9-9-9-9-9-9-9-|-9--9--9--9--9--9--9--9--|
d|-------------------|-------------------------|
a|-------------------|-------------------------|
E|-------------------|-------------------------|
                                                
e|-----------------|--------------------||
b|-7-7-7-7-7-7-7-7-|-7-7-7-7-7-7-7-7-7--||
g|-9-9-9-9-9-9-9-9-|-9-9-9-9-9-9-9-9-9-o||
d|-----------------|-------------------o||
a|-----------------|--------------------||
E|-----------------|--------------------||


CHORUS overdriven
e|-----------------|-----------------|-----------------|-----------------|
b|-----------------|-----------------|-----------------|-----------------|
g|-----------------|-----------------|-----------------|-----------------|x4
d|-9-9-9-9-9-9-9-9-|-9-9-9-9-9-9-9-9-|-5-5-5-5-5-5-5-5-|-7-7-7-7-7-7-7-7-|
a|-7-7-7-7-7-7-7-7-|-7-7-7-7-7-7-7-7-|-3-3-3-3-3-3-3-3-|-5-5-5-5-5-5-5-5-|
E|-----------------|-----------------|-----------------|-----------------|

VERSE again, but 2nd time has overdriven guitar
CHORUS but repeat several times until the end
finishes on the E:   d|-9-
                     a|-7-
Добавлено: 15.03.2012
Вам также может быть интересно:
Другие материалы по этой песне:
  • Аккорды и текст

Страница создана 15.03.2012
http://primanota.ru/weapons/out-of-time-chords.htm
Привет, Гость.
Предлагаем пройти революционный курс по гитаре.
Подарок от PrimaNota.Ru, забирай!