PrimaNota.ru - самый крупный в мире бесплатный архив песенных текстов, аккордов, табулатур и нот


We Were Promised Jetpacks - This Is My House This Is My Home - таба, бас-таба, видео

Регистрация Запомнить меня
Войти через:  Facebook Google Twitter Vk Yandex Mail.ru

We Were Promised Jetpacks - This Is My House This Is My Home - таба, бас-таба, видео

Печатать
Просмотров: 203
My first tab hope it's helpful!

Chords used in song

   Eb         Gm       Cm         Ab    Cm*          Gm*

e|--6----------3--------3---------4------8---------10----------------------|
B|--8----------3--------4---------4------8---------11----------------------|
G|--8----------3--------5---------5------8---------12----------------------|
D|--8----------5--------5---------6------10--------12----------------------|
A|--6----------5--------3---------6------10--------10----------------------|
E|--x----------3--------x---------4-------8---------x----------------------|


h: hammer on


 Intro

 Chords (optional)

(Eb | Gm | Cm | Gm)

e|-----------------------------------------------------------------|
B|-----------------------------------------------------------------|
G|----0----0----0----0----0----0----0----0-------------------------|
D|------13--------13--------13--------13---------------------------|
A|--13-------13--------13--------13--------------------------------|
E|-----------------------------------------------------------------|



e|-----------------------------------------------------------------|
B|-----------------------------------------------------------------|
G|-----0----0----0----0----0----0----0----0------------------------|
D|-------12--------12--------12--------12--------------------------|
A|--13--------13--------13--------13-------------------------------|
E|-----------------------------------------------------------------|



e|-----------------------------------------------------------------|
B|-----------------------------------------------------------------|
G|-----0----0----0----0----0----0----0----0------------------------|
D|-------13--------13--------13--------13--------------------------|
A|--15--------15--------15--------15-------------------------------|
E|-----------------------------------------------------------------|



e|-----------------------------------------------------------------|
B|-----------------------------------------------------------------|
G|-----0---0----0---0----0---0----0---0----------------------------|
D|-------8--------8--------8--------8------------------------------|
A|--10-------10-------10-------10----------------------------------|
E|-----------------------------------------------------------------|

Continue through verse

             --------------------------------------------

    Eb          Cm               Gm
     Something's happened in the attic
             Ab
     There's no way I am going up there
    Eb          Cm              Gm
     Something's happened in the attic
         Ab
     We both know I'm not going up there



e|-----------------------------------------------------------------|
B|-----------------------------------------------------------------|
G|-----------------------------------------------------------------|
D|-----13----13----13----13h15---12----12----12----12h13-----------|
A|--13----13----13----13-------13----13----13----13----------------|
E|-----------------------------------------------------------------|


e|-----------------------------------------------------------------|
B|-----------------------------------------------------------------|
G|-----------------------------------------------------------------|
D|-----13----13----13----13h15----8----8----8----8h12--------------|
A|--15----15----15----15-------10---10---10---1--------------------|
E|-----------------------------------------------------------------|

Oh no, you found me
Oh no, you found me here


    Eb          Cm                Gm
     Something's happened in the attic
             Ab
     There's no way I am going up there
    Eb          Cm                Gm
     Something's happened in the attic
        Ab
     We both know I'm not going up there
    Eb          Cm                Gm
     Something's happened in the attic


Eb | Cm* | Gm* | Ab |      x3


End on Eb

                   ---------------------------------


      Good Luck!
Добавлено: 20.11.2013
Другие материалы по этой песне:

Страница создана 12.03.2012
http://primanota.ru/we-were-promised-jetpacks/this-is-my-house-this-is-my-home-chords.htm
Привет, Гость.
Предлагаем пройти революционный курс по гитаре.
Подарок от PrimaNota.Ru, забирай!