PrimaNota.ru - самый крупный в мире бесплатный архив песенных текстов, аккордов, табулатур и нот


We Changed Our Name - Grizabellas Memories - таба, видео

Регистрация Запомнить меня
Войти через:  Facebook Google Twitter Vk Yandex Mail.ru

We Changed Our Name - Grizabellas Memories - таба, видео

Печатать
Просмотров: 104
Уроки эстрадного вокала в Санкт-Петербурге
-------------------------------------------------------------------------------
                   GRIZABELLA'S MEMORIES - We Changed Our Name
-------------------------------------------------------------------------------
Tabbed by: Markus Thömmes
E-mail: markusthoemmes@me.com

Tuning: Drop B

Verse 1:

C#|--------------------------------------------------|
G#|--------------------------------------------------|
E |--------------------------------------------------| x4
B |----------------11111111--------------------------|
F#|--------------------------------------------------|
B |-1-0-0-00-0-0-0----------1-0-0-00-0-0-0-3333-6666-|

C#|------------|
G#|------------|
E |-7----------| x4
B |------------|
F#|-5----------|
B |---00-0-0-0-|

Chorus:

C#|---------------------------------|
G#|---------------------------------|
E |---------------------------------| x2
B |-8-------7-------3-------7-------|
F#|-8-(x16)-7-(x16)-3-(x16)-7-(x16)-|
B |-8-------7-------3-------7-------|

(second time Guitar 2 goes:)

C#|-------------17--18--15--13--12--|
G#|-18--17--20----------------------|
E |---------------------------------|
B |---------------------------------|
F#|---------------------------------|
B |---------------------------------|

Break:

C#|---|
G#|---|
E |---|
B |-0-|
F#|-0-|
B |-0-|

C#|-----------------|
G#|-----------------|
E |-----------------| (x4)
B |-----------------|
F#|-----------------|
B |-8-7-3-7-8-7-8-7-|

C#|--------------------------------|
G#|--------------------------------|
E |--------------------------------| (x2)
B |-------0--------8---------7-7-7-|
F#|-------0--------8---------7-7-7-|
B |-00-0-00--88-8-88--33-3-3-7-7-7-|

C#|-----------------|
G#|-----------------|
E |-----------------| (x2)
B |-----------------|
F#|-----------------|
B |-8-7-3-7-8-7-8-7-|

Chorus

Break 2:

C#|----------------|
G#|----------------|
E |----------------|
B |----------------|
F#|----------------|
B |-1-0-0-00-0-0-0-|

C#|--------------------------------------------------|
G#|--------------------------------------------------|
E |--------------------------------------------------| x4 (leave the 3333 6666 out on second time)
B |----------------11111111--------------------------|
F#|--------------------------------------------------|
B |-1-0-0-00-0-0-0----------1-0-0-00-0-0-0-3333-6666-|

C#|--------------|
G#|--------------|
E |--------------| (makes no sense to tab out, listen and make it evil!)
B |-0-0-0-0------|
F#|-0-0-0-0------|
B |-1-1-1-1-...--|

C#|----------------------------------------|
G#|----------------------------------------|
E |----------------------------------------|
B |----------------------------------------|
F#|----------------------------------------|
B |-1-0--0--0--0---------------------------|

************************************

| /   slide up
| \   slide down
| h   hammer-on
| p   pull-off
| ~   vibrato
| +   harmonic
| x   Mute note
| b   Bend
| pb  Pre-bend
| br  Bend release
| pbr Pre-bend release
| brb Bend release bend

************************************
Добавлено: 16.12.2015
Вам также может быть интересно:
Другие материалы по этой песне:
  • Аккорды и текст

Страница создана 16.12.2015
http://primanota.ru/we-changed-our-name/grizabellas-memories-chords.htm
Привет, Гость.
Предлагаем пройти революционный курс по гитаре.
Подарок от PrimaNota.Ru, забирай!