PrimaNota.ru - самый крупный в мире бесплатный архив песенных текстов, аккордов, табулатур и нот


We Changed Our Name - For Those - таба, видео

Регистрация Запомнить меня
Войти через:  Facebook Google Twitter Vk Yandex Mail.ru

We Changed Our Name - For Those - таба, видео

Печатать
Просмотров: 76
-------------------------------------------------------------------------------
                        FOR THOSE - We Changed Our Name
-------------------------------------------------------------------------------
Tabbed by: Markus Thömmes
E-mail: markusthoemmes@me.com

Tuning: Drop B

Intro:

Guitar 1:
C#|-------------------------------------------------------------------------|
G#|-------------------------------------------------------------------------|
E |----------14-------------5------------9----------------------------------| x2
B |-------12----14--------7---7-------10---10---------12-12h14-12-----------|
F#|----12----------15---5-------5---8---------8----10-------------10----10--|
B |-12----------------5-----------8-------------10-------------------10-----|

Guitar 2: on the second time
C#|-----------------------------------------------------------|
G#|-----------------------------------------------------------|
E |-17----------------------17----------17--------------------|
B |-15----14-15----14-15-------15-14-15----15-14-15-14h15-----|
F#|-15----------15-------15-------------------------------15--|
B |-----------------------------------------------------------|

Both:
C#|---------------------------------|
G#|---------------------------------|
E |---------------------------------|
B |-14------7------10------14-------|
F#|-12-(x8)-5-(x8)--8-(x8)-10-(x8)--|
B |-12------5-------8------10-------|

Verse:

C#|------------------------------------------------------------------
G#|------------------------------------------------------------------
E |------------------------------------------------------------------
B |-0----------------------------------------------------------------
F#|-0---------------8h10---7h8---3h5---------------8h10---7h8---3h5--
B |-0-0-0-000-000-0------0-----0-----0-0-000-000-0------0-----0------

C#|---------------------------------------------|
G#|---------------------------------------------|
E |---------------------------------------------| x2
B |------------------------------3------7-------|
F#|---------------8h10---7h8---3-3-(x8)-7-(x8)--|
B |-0-0-000-000-0------0-----0---3------7-------|

Guitar 2 goes 8h10 14p12 8h10 every second time on the second riff

Chorus:

C#|-----------------------------------|
G#|-----------------------------------|
E |-----------------------------------| x2
B |-0-------5-------8-------10--------|
F#|-0-(x16)-5-(x16)-8-(x16)-10-(x16)--|
B |-0-------5-------8-------10--------|

Guitar 2: second time goes:
C#|---------------------------------------------------|
G#|---------------------------------------------------|
E |-7-------9------10------12------14-------17--------|
B |---(x16)---(x8)----(x3)----(x5)----(x16)----(x16)--|
F#|-5-------7-------8------10------12-------15--------|
B |---------------------------------------------------|


C#|------------------|
G#|------------------|
E |------------------|
B |------------------|
F#|------------------|
B |-0-000-0-000-000--|


Verse


Chorus


Pre-Break:

C#|------------------|
G#|------------------|
E |------------------| x4
B |------------------|
F#|------------------|
B |-0-000-0-000-0-0--|

Break:

C#|-----------------------|
G#|-----------------------|
E |-----------------------| x4
B |-----------------------|
F#|-----------------------|
B |-0-000-0-000-00000000--|

C#|-----------------------|
G#|-----------------------|
E |-----------------------| x4
B |-----------------------|
F#|-----------------------|
B |-0-000-0-000-11111111--|


Chorus 

but start with:
C#|---------|
G#|---------|
E |-7-------|
B |---(x8)--|
F#|-5-------|
B |---------|
followed by a break

No Guitar 2 on every second time, but in the repetition of the chours you do:
C#|-----------------------------------|
G#|-----------------------------------|
E |-17----------17--------------------| x4
B |----15-14-15----15-14-15-14h15-----|
F#|-------------------------------15--|
B |-----------------------------------|

End:

Guitar 1:
C#|----|
G#|----|
E |----|
B |-0--|
F#|-0--|
B |-0--|

Guitar 2:
C#|-----------------------------------|
G#|-----------------------------------|
E |-17----------17--------------------|
B |----15-14-15----15-14-15-14h15-----|
F#|-------------------------------15--|
B |-----------------------------------|


************************************

| /   slide up
| \   slide down
| h   hammer-on
| p   pull-off
| ~   vibrato
| +   harmonic
| x   Mute note
| b   Bend
| pb  Pre-bend
| br  Bend release
| pbr Pre-bend release
| brb Bend release bend

************************************
Добавлено: 16.12.2015
Другие материалы по этой песне:
  • Аккорды и текст

Страница создана 16.12.2015
http://primanota.ru/we-changed-our-name/for-those-chords.htm
Привет, Гость.
Предлагаем пройти революционный курс по гитаре.
Подарок от PrimaNota.Ru, забирай!