PrimaNota.ru - самый крупный в мире бесплатный архив песенных текстов, аккордов, табулатур и нот


We Changed Our Name - Dean Moriarty - таба, видео

Регистрация Запомнить меня
Войти через:  Facebook Google Twitter Vk Yandex Mail.ru

We Changed Our Name - Dean Moriarty - таба, видео

Печатать
Просмотров: 112
Уроки эстрадного вокала в Санкт-Петербурге
-------------------------------------------------------------------------------
                      DEAN MORIARTY - We Changed Our Name
-------------------------------------------------------------------------------
Tabbed by: Markus Thömmes
E-mail: markusthoemmes@me.com

Tuning: Drop B

Intro:

C#|------------------------------------------------------------------|
G#|------------------------------------------------------------------|
E |------------------------------------------------------------------| x2
B |------------------------------------------------------------------|
F#|---5-----5---------5-----5---------4-----4---------4-----4--------|
B |-0---1-0---00-00-0---1-0---00-00-0---1-0---00-00-0---1-0---00-00--|

Verse 1:

C#|-----------------------------|
G#|-----------------------------|
E |-----------------------------| x5
B |----------------------3-2----|
F#|-5------------5-3---5-----3--|
B |---0-00-0-0-0-----0----------|

C#|-----------------------------|
G#|-----------------------------|
E |-----------------------------| x4
B |----------------------3-2----|
F#|-5------------5-3---5-----3--|
B |--------0-0-0-----0----------|

Chorus:

Guitar 1:
C#|--------------------------------------------------------------------------------|
G#|--------------------------------------------------------------------------------|
E |-7-------------------------------7-----------------------3----------------------|
B |-7-(x16)-7-------3-------2-------7-(x16)-7-------3-------3-(x8)-3---------------|
F#|-5-------7-(x16)-3-(x16)-2-(x16)-5-------7-(x16)-3-(x16)-1------3-(x4)----------|
B |---------7-------3-------2---------------7-------3--------------3------7-7-3-2--|

Guitar 2: instead of 16x 775 do:
C#|------------------------|
G#|------------------------|
E |-7------9------10-------|
B |-7-(x8)-9-(x4)-10-(x4)--|
F#|-5------7-------8-------|
B |------------------------|

Bridge:
C#|-------------------------------------------------------------|
G#|-------------------------------------------------------------|
E |-------------------------------------------------------------|
B |-------------------------------------------------------------|
F#|---5-----5---------5-----5---------4-----4---------4-----4---|
B |-0---1-0---00-00-0---1-0---00-00-0---1-0---00-00-0---1-0-----|

Verse 2:

Guitar 1:
C#|--------------------------------------------------------|
G#|--------------------------------------------------------|
E |--------------------------------------------------------|
B |--------------------------------------------------------|
F#|---5-----5-----5-----5-----4-----4-----4-----HARMONIC---|
B |-0---1-0---0-0---1-0---0-0---1-0---0-0---1-0------------|

Intro 3x

Guitar 2: do this the whole time:
C#|-------------|
G#|-------------|
E |-14--12--15--|
B |-------------|
F#|-------------|
B |-------------|


Chorus


Interlude:

Guitar 1:
C#|------------------|
G#|------------------|
E |------------------| x4
B |------------------|
F#|-5-------4--------|
B |---0-0-0---0-0-0--|

Guitar 2:
C#|------------------|
G#|------------------|
E |---9---10-9---9---| x16
B |-7---7------7-----|
F#|------------------|
B |------------------|

Both end with:
C#|------------|
G#|------------|
E |------------|
B |------------|
F#|---5-----5--|
B |-0---1-0----|


Chorus


End:
Guitar 1:
C#|----|
G#|----|
E |----|
B |-0--|
F#|-0--|
B |-0--|

Guitar 2:
C#|------------------|
G#|------------------|
E |---9---10-9---9---| x2
B |-7---7------7-----|
F#|------------------|
B |------------------|




************************************

| /   slide up
| \   slide down
| h   hammer-on
| p   pull-off
| ~   vibrato
| +   harmonic
| x   Mute note
| b   Bend
| pb  Pre-bend
| br  Bend release
| pbr Pre-bend release
| brb Bend release bend

************************************
Добавлено: 16.12.2015
Другие материалы по этой песне:
  • Аккорды и текст

Страница создана 16.12.2015
http://primanota.ru/we-changed-our-name/dean-moriarty-chords.htm
Привет, Гость.
Предлагаем пройти революционный курс по гитаре.
Подарок от PrimaNota.Ru, забирай!