PrimaNota.ru - самый крупный в мире бесплатный архив песенных текстов, аккордов, табулатур и нот


We Changed Our Name - Colours - таба, видео

Регистрация Запомнить меня
Войти через:  Facebook Google Twitter Vk Yandex Mail.ru

We Changed Our Name - Colours - таба, видео

Печатать
Просмотров: 23
-------------------------------------------------------------------------------
                             COLOURS - We Changed Our Name
-------------------------------------------------------------------------------
Tabbed by: Markus Thömmes
E-mail: markusthoemmes@me.com

Tuning: Drop B

Intro:

C#|-----------------------------------------------------------------------------------|
G#|-----------------------------------------------------------------------------------|
E |-----------------------------------------------------------------------------------|
B |-0------11------8------10-7--------0------11------7------8------10-7---------------|
F#|-0-(x8)-11-(x8)-8-(x7)-10-7-(x8)---0-(x8)-11-(x5)-7-(x3)-8-(x7)-10-7-(x4)-4-4-5----|
B |-0------11------8------10-7--------0------11------7------8------10-7---------------|

Verse 1:

C#|---------------------------------------------------------------------------------------------|
G#|---------------------------------------------------------------------------------------------|
E |---------------------------------------------------------------------------------------------|
B |---------------------------------------------------------------------------------------------|
F#|------------------5-8-5-0-4-7-4----------------5-8-5-0-4-7-4----------------8-11-8-0-7-10-7--|
B |-0-00-00-00-00-00---------------00-00-00-00-00---------------00-0-0-0-00-00------------------|

C#|---------------------------------|
G#|---------------------------------|
E |---------------------------------|
B |---------------------------------|
F#|----------------8-11-8-0-7-10-7--|
B |-00-00-00-00-00------------------|

Pre-Chorus:

C#|------------------------------------------------------------------|
G#|------------------------------------------------------------------|
E |------------------------------------------------------------------|
B |------------------------------------------------------------------|
F#|-5-5-5-5-5-5-5-7-4-4-4-4-4-------1-1-1-1-1-1-1-3-0-0-0-0-0-0-0-0--|
B |---------------------------0-0-0----------------------------------|

Chorus:

C#|---------------------------------------------------------------------------------------|
G#|---------------------------------------------------------------------------------------|
E |---------------------------------------------------------------------------------------|
B |-0-------8-------5-------8------7--------0-------3-------8-------7------7-7-7----------|
F#|-0-(x16)-8-(x16)-5-(x16)-8-(x8)-7-(x8)---0-(x16)-3-(x16)-8-(x16)-7-(x8)-7-7-7----------|
B |-0-------8-------5-------8------7--------0-------3-------8-------7------7-7-7-0-SLIDE--|

Verse 2:

Wouldn't make any sense to tab the strumming out, just listen to the song!
C#|-----------------------------------------------------------------------------|
G#|-----------------------------------------------------------------------------|
E |-----------------------------------------------------------------------------|
B |-----------------------------------------------------------------------------|
F#|-------------------------------------------4-4-4-5------------------7-7-7-8--|
B |-0-(lots of them!)--at the end:-0-00-00-00---------0-00-00-00-00-00----------|

Pre-Chorus

Chorus:

C#|----------------------------------------------------------------------------------|
G#|----------------------------------------------------------------------------------|
E |----------------------------------------------------------------------------------|
B |-0-------8-------5-------8------7--------0-------3-------8-------7----------------|
F#|-0-(x16)-8-(x16)-5-(x16)-8-(x8)-7-(x8)---0-(x16)-3-(x16)-8-(x16)-7-(x14)----------|
B |-0-------8-------5-------8------7--------0-------3-------8-------7-------0-SLIDE--|

Verse 1

Bridge:

C#|-------------------------------------------------------------------------------------------------|
G#|-------------------------------------------------------------------------------------------------|
E |-------------------------------------------------------------------------------------------------|
B |-------------------------------------------------------------------------------------------------|
F#|-------------------4-4-5-5----------------4-4-5-5-----------------4-4-5-5-----------------7-7-8--|
B |-0-0-0000-0000-000---------0-0000-0000-000--------0-0000-0000-000---------0-0000-0000-0000-------|

Chorus:

C#|--------------------------------------------------------------------------|
G#|--------------------------------------------------------------------------|
E |--------------------------------------------------------------------------|
B |-0-------8-------5-------8------7--------0-------3-------8-------7--------|
F#|-0-(x16)-8-(x16)-5-(x16)-8-(x8)-7-(x8)---0-(x16)-3-(x16)-8-(x16)-7-(x16)--|
B |-0-------8-------5-------8------7--------0-------3-------8-------7--------|

C#|---------------------------------------------------------------------------|
G#|---------------------------------------------------------------------------|
E |---------------------------------------------------------------------------|
B |-0-------8-------5-------7------11--------0-------3-------8-------7--------|
F#|-0-(x16)-8-(x16)-5-(x16)-7-(x8)-11-(x8)---0-(x16)-3-(x16)-8-(x16)-7-(x16)--|
B |-0-------8-------5-------7------11--------0-------3-------8-------7--------|
                                             no straight strumming here, listen to the song for pattern

Intro

************************************

| /   slide up
| \   slide down
| h   hammer-on
| p   pull-off
| ~   vibrato
| +   harmonic
| x   Mute note
| b   Bend
| pb  Pre-bend
| br  Bend release
| pbr Pre-bend release
| brb Bend release bend

************************************
Добавлено: 09.08.2015
Другие материалы по этой песне:
  • Аккорды и текст

Страница создана 09.08.2015
http://primanota.ru/we-changed-our-name/colours-chords.htm
Привет, Гость.
Предлагаем пройти революционный курс по гитаре.
Подарок от PrimaNota.Ru, забирай!