PrimaNota.ru - самый крупный в мире бесплатный архив песенных текстов, аккордов, табулатур и нот


We Butter The Bread With Butter - Ich Mach Was Mit Medien - таба, видео

Регистрация Запомнить меня
Войти через:  Facebook Google Twitter Vk Yandex Mail.ru

We Butter The Bread With Butter - Ich Mach Was Mit Medien - таба, видео

Печатать
Просмотров: 204
-------------------------------------------------------------------------------
        Ich Mach Was Mit Medien - We Butter The Bread With Butter
-------------------------------------------------------------------------------

INTRO (0:05):

eb|---------------------|
Bb|-10------------------|
Gb|----9----------------| 7 TIMES
Db|------7-8h-7-8h-7-8h-|
Ab|---------------------|
Eb|---------------------|

2ND PART OF INTRO (0:15) 2 TIMES:

eb|---------------|
Bb|-10------------|
Gb|----9----------| 3 TIMES
Db|---------------|
Ab|-------0--0--0-|
Eb|---------------|

eb|-------------|
Bb|-------------|
Gb|-------------|
Db|---------8-7-|
Ab|---------8-7-|
Eb|-5-6h-5p-6-5-|

CHORUS (0:25):

eb|----------------------------------------------------|
Bb|-----------10~-------10~------10~-------------------|
Gb|----------------------------------------------------|
Db|------------------------------------------------8-7-|
Ab|--------------0-0-0-----0-0-0-----0-0-0---------8-7-|
Eb|-5---5----------------------------------5-6h-5p-6-5-|

eb|----------------------------------------|
Bb|-10~------10~-----10~-------------------|
Gb|----------------------------------------|
Db|------------------------------------8-7-|
Ab|----0-0-0----0-0-0----0-0-0---------8-7-|
Eb|----------------------------5-6h-5p-6-5-|

2ND PART OF INTRO 2 TIMES(0:45)

BREAKDOWN (0:56):

eb|-------------------------------------------------|
Bb|-------------------------------------------------|
Gb|-------------------------------------------------| 2 TIMES
Db|----------------------------------------7-10-8-7-|
Ab|----------------------------------------7-10-8-7-|
Eb|-5-5-5---5-5-5---5-5-5---5-5-5--6-5-6-8-5-8--6-5-|

2ND CHORUS (1:06):
I'm not sure about this part, it's kind of messy to understand clearly
eb|-----------------------------------|
Bb|-----------------------------------|
Gb|-----------------------------------| 2 TIMES
Db|-----------------------------------|
Ab|-----------------------------5-7-8-|
Eb|-5-0-3-0-5-3-0-5-0-3-0-3-5-0-------|

2ND PART OF INTRO AGAIN

BRIDGE (1:25):

eb|------------------------------------------------------------------|
Bb|------------------------------------------------------------------|
Gb|------------------------------------------------------------------| 2 TIMES
Db|------------------------------------------------------------------|
Ab|-7-7-7-7-7-7-7-7-7-7-7-7-7-7-7-7-4-4-4-4-4-4-4-4-4-4-4-4-4-4-4-4/-|
Eb|-5-5-5-5-5-5-5-5-5-5-5-5-5-5-5-5-5-5-5-5-5-5-5-5-5-5-5-5-5-5-5-5/-|

BREAK FOR 25 SECONDS, YOU CAN PLAY THIS JUST NOT TO BE BORED:

eb|-------------------------------|
Bb|-10--10-10-9--9-9-8-7----------|
Gb|----------------------10-9-----|
Db|---------------------------7-7-|
Ab|-------------------------------|
Eb|-------------------------------|

THEN BREAKDOWN 4 TIMES(2:11) 

2ND CHORUS 2 TIMES

2ND PART OF INTRO 4 TIMES
************************************

| /   slide up
| h   hammer-on
| p   pull-off
| ~   vibrato

************************************
Добавлено: 25.04.2016
Другие материалы по этой песне:
  • Аккорды и текст

Страница создана 25.04.2016
http://primanota.ru/we-butter-the-bread-with-butter/ich-mach-was-mit-medien-chords.htm
Привет, Гость.
Предлагаем пройти революционный курс по гитаре.
Подарок от PrimaNota.Ru, забирай!