PrimaNota.ru - самый крупный в мире бесплатный архив песенных текстов, аккордов, табулатур и нот


We Butter The Bread With Butter - Alles Was Ich Will - бас-таба, видео

Регистрация Запомнить меня
Войти через:  Facebook Google Twitter Vk Yandex Mail.ru

We Butter The Bread With Butter - Alles Was Ich Will - бас-таба, видео

Печатать
Просмотров: 80
0:10

F|---------------------------------|
C|---------------------------------| 8 TIMES
G|---------------------------------|
C|-0-15-12-0-15-12-0-15-12-0-11-12-|

BREAK, THEN

0:35

F|---------------------------------|
C|---------------------------------| 6 TIMES
G|---------------------------------|
C|-0-15-12-0-15-12-0-15-12-0-11-12-|

BREAK, THEN

0:57

F|-----------------|
C|-----------------|
G|-----------------|
C|-0-15-12-0-15-12-|

PRE-CHORUS

F|---------------------------------|
C|---------------------------------| 4 TIMES
G|---------------------------------|
C|-0-15-12-0-15-12-0-15-12-0-11-12-|

CHORUS

F|------------------------------------------------------------|
C|------------------------------------------------------------|
G|-------------------------------------------------3--3--3--3-|
C|-0--0-0-0-0--0-0-0-7--7--7--7--3--3-3-3-3--3-3-3------------|

F|-----------------------------------------------------|
C|-----------------------------------------------------|
G|------------------------------------------3--3--3--3-|
C|-0--0-0-0-0--0-0-0-7--7--7--7--5--5--5--5------------|

BREAKDOWN

F|--------------------------------------------------------------------------|
C|--------------------------------------------------------------------------|
G|--------------------------------------------------------------------------|
C|-0--0-0-0-0----0-0-0-0--0-0-0-0--0-0-0-0-0----0-0-0--0-0-0-0-0-0--0-0-0-0-|

F|-------------------------------------------------|
C|-------------------------------------------------|
G|-------------------------------------------------|
C|-0-0-0-0--0-0-0-0--0-0-0-0-0----0-0-0--0-0-0-0-0-|

F|---------------------------------|
C|---------------------------------| 2 TIMES
G|---------------------------------|
C|-0-15-12-0-15-12-0-15-12-0-11-12-|

1:51

F|---------------------------------|
C|---------------------------------| 2 TIMES
G|---------------------------------|
C|-0-15-12-0-15-12-0-15-12-0-11-12-|

2:00

F|---------------------------------|
C|---------------------------------| 2 TIMES
G|---------------------------------|
C|-0-15-12-0-15-12-0-15-12-0-11-12-|

PRE-CHORUS

F|---------------------------------|
C|---------------------------------| 2 TIMES
G|---------------------------------|
C|-0-15-12-0-15-12-0-15-12-0-11-12-|

CHORUS

F|------------------------------------------------------------|
C|------------------------------------------------------------|
G|-------------------------------------------------3--3--3--3-|
C|-0--0-0-0-0--0-0-0-7--7--7--7--3--3-3-3-3--3-3-3------------|

F|-----------------------------------------------------|
C|-----------------------------------------------------|
G|------------------------------------------3--3--3--3-|
C|-0--0-0-0-0--0-0-0-7--7--7--7--5--5--5--5------------|

SOLO

F|------------------------------------------------------------|
C|------------------------------------------------------------|
G|-------------------------------------------------3--3--3--3-|
C|-0--0-0-0-0--0-0-0-7--7--7--7--3--3-3-3-3--3-3-3------------|

F|-----------------------------------------------------|
C|-----------------------------------------------------|
G|------------------------------------------3--3--3--3-|
C|-0--0-0-0-0--0-0-0-7--7--7--7--5--5--5--5------------|

2:52

F|---------------------------------|
C|---------------------------------| 6 TIMES
G|---------------------------------|
C|-0-15-12-0-15-12-0-15-12-0-11-12-|

CHORUS

F|------------------------------------------------------------|
C|------------------------------------------------------------|
G|-------------------------------------------------3--3--3--3-|
C|-0--0-0-0-0--0-0-0-7--7--7--7--3--3-3-3-3--3-3-3------------|

F|-----------------------------------------------------|
C|-----------------------------------------------------|
G|------------------------------------------3--3--3--3-|
C|-0--0-0-0-0--0-0-0-7--7--7--7--5--5--5--5------------|

OUTRO

F|--------------------------------------|
C|--------------------------------------|
G|----------------3-------------------3-|
C|-0----7----3---------0----7----5------|


F|---------------------------------|
C|---------------------------------| 
G|---------------------------------|
C|-0-15-12-0-15-12-0-15-12-0-11-12-|


F|-----------------------------------|
C|-----------------------------------| 
G|-----------------------------------|
C|-0-15-12-0-15-12-0-15-12-0-11-12-0-|
Добавлено: 25.04.2016
Другие материалы по этой песне:

Страница создана 10.10.2014
http://primanota.ru/we-butter-the-bread-with-butter/alles-was-ich-will-chords.htm
Привет, Гость.
Предлагаем пройти революционный курс по гитаре.
Подарок от PrimaNota.Ru, забирай!