PrimaNota.ru - самый крупный в мире бесплатный архив песенных текстов, аккордов, табулатур и нот


We Butter The Bread With Butter - 13 Wuensche - таба, видео

Регистрация Запомнить меня
Войти через:  Facebook Google Twitter Vk Yandex Mail.ru

We Butter The Bread With Butter - 13 Wuensche - таба, видео

Печатать
Просмотров: 230
13 Wuensche
We Butter the Bread with Butter
Guitar Drop Bb Tuning: Bb-F-Bb-Eb-G-C (low to high)

SYNTH 0:00
||---------------------------------------------------------------------|
||-------------8/16-----------------------8/16-------------------------|
||----------13--------16-15-16-16\15~------------16-15-15-14~----------|
||--------------------------------------13~---------------------20\14~-|
||-17\11~--------------------------------------------------------------|
||---------------------------------------------------------------------|

|-----------------------5/18~-||
|-8/16------------------------||
|--------16-15-16-15~---------||
|-----------------------------||
|-----------------------------||
|-----------------------------||
Rhythm Guitar 0:14
||---------------------------------------------------------------------------------------||
||---------------------------------------------------------------------------------------||
||---------------------------------------------------------------------------------------||
||-------------------------------------------------------1-1-8-8-----------------------5-||
||------6-6-------6-6-------6-6-6--6-6-6-------6-6-6-6---1-1-8-8--6-6--6-6-------------5-||
||-6666-6-6--6666-6-6--6666-6-6-6--6-6-6--6666-6-6-6-6---1-1-8-8--6-6--6-6--5-5-5-5555-5-|| 2x
   ....      ....      ....               ....             . .                . . . .... 
Rhythm Guitar 0:34
||-----------------------||
||-----------------------||
||-----------------------||
||-6~--1~--2~--5~--5-----||
||-6~--1~--2~--5~--5-5-5-||
||-6~--1~--2~--5~--5-5-5-||
                     . .
SYNTH 0:34
||------------------|
||-16~--16-17-16-14-|
||------------------|
||------------------|
||------------------|
||------------------| 3x

|------23\~----||
|-16~----------||
|--------------||
|--------------||
|-----------11-||
|--------------||
Rhythm Guitar 0:47
||-----------------------------------------------------------------------||
||-----------------------------------------------------------------------||
||-----------------------------------------------------------------------||
||-6----------------1----------------2----------------1--------5--__3__--|| (triplets)
||-6----------------1----------------2----------------1--------5--|----|-||
||-6--6-6--66666666-1--1-1--11111111-2--2-2--22222222-1--1--1--5--5-5-5--||
      . .  ........    . .  ........    . .  ........    .  .     . . .
|-------------------------------------------------|
|-------------------------------------------------|
|-------------------------------------------------|
|-------------------------------------------------|
|-66666666---------------11111111-----------------|
|-66666666-6-6--66666666-11111111-1-1--11111111---|
           . .  ........          . .  ........
|-----------------------------------------------||
|-----------------------------------------------||
|-----------------------------------------------||
|-----------------------------------------------||
|-22222222---------------11111111---------------||
|-22222222-2-2--22222222-11111111-1-1--11111111-||
           . .  ........          . .  ........

SYNTH 0:47
||---------------------------------------------------------------------|
||-------------8/16-----------------------8/16-------------------------|
||----------13--------16-15-16-16\15~------------16-15-15-14~----------|
||--------------------------------------13~---------------------20\14~-|
||-17\11~--------------------------------------------------------------|
||---------------------------------------------------------------------|

|-----------------------5/18~-||
|-8/16------------------------||
|--------16-15-16-15~---------||
|-----------------------------||
|-----------------------------||
|-----------------------------||
Rhythm Guitar 1:16
||---------------------------------------------------------------------||
||---------------------------------------------------------------------||
||---------------------------------------------------------------------||
||---------------------------------------------------------------------||
||------------------7777777766664444-----------------------------------||
||-2222222222222222------------------6666666666666666-5555555555555555-||
Rhythm Guitar 1:22
||-----------------------------------------------------------------------------------------|
||-----------------------------------------------------------------------------------------|
||-----------------------------------------------------------------------------------------|
||-6-6-4h7p4h7-3h6p3h6-6-6-4h7p4h7-6h9p6h9-6-6-9h11p9h11-7h9p7h9-6-6-11h12p11h12-9h11p9h11-|
||-6-6-----------------6-6-----------------6-6-------------------6-6-----------------------|
||-6-6-----------------6-6-----------------6-6-------------------6-6-----------------------|

|-----------------------------------------------------||
|-----------------------------------------------------||
|-----------------------------------------------------||
|-2-2----------2-2----------4-4----------1-1----------||
|-2-2----------2-2----------4-4----------1-1----------||
|-2-2-22222222-2-2-22222222-4-4-44444444-1-1-11111111-||
      ........     ........     ........     ........
||-----------------------------------------------------------------------------------------|
||-----------------------------------------------------------------------------------------|
||-----------------------------------------------------------------------------------------|
||-6-6-4h7p4h7-3h6p3h6-6-6-4h7p4h7-6h9p6h9-6-6-9h11p9h11-7h9p7h9-6-6-11h12p11h12-9h11p9h11-|
||-6-6-----------------6-6-----------------6-6-------------------6-6-----------------------|
||-6-6-----------------6-6-----------------6-6-------------------6-6-----------------------|

|-----------------------------------------------------------------------------------------||
|-----------------------------------------------------------------------------------------||
|-----------------------------------------------------------------------------------------||
|-2-2-4h7p4h7-3h6p3h6-2-2-4h7p4h7-6h9p6h9-4-4-9h11p9h11-7h9p7h9-1-1-11h12p11h12-9h11p9h11-||
|-2-2-----------------2-2-----------------4-4-------------------1-1-----------------------||
|-2-2-----------------2-2-----------------4-4-------------------1-1-----------------------||
Rhythm Guitar 1:50
||------------------------||
||------------------------||
||------------------------||
||------------------------||
||-8--6-7-8-7--6-9-8-7-8--||
||-8--6-7-8-7--6-9-8-7-8--|| ?x
   .  . . . .  . . . . .
Rhythm Guitar 2:21
||-----------------------------------------------------------------|
||-----------------------------------------------------------------|
||-----------------------------------------------------------------|
||-----------------------------------------------------------------|
||-----------------------------------------------------------------|
||-6666666666666666666666666666666611111111111111111111111111111111|

|-----------------------------------------------------------------||
|-----------------------------------------------------------------||
|-----------------------------------------------------------------||
|-----------------------------------------------------------------||
|-----------------------------------------------------------------||
|2222222222222222222222222222222255555555555555558888888888888888-|| 2x (tremolo picking)

SYNTH 2:21
||----------------------------------------------------------------------|
||---------------------4/16---------------------------4/16--------------|
||-1/13---------------------16-15-16--15---------------------16-15-16---|
||--------13-14-14-13~---------------------13-14-14-13~-----------------|
||----------------------------------------------------------------------|
||----------------------------------------------------------------------|

|------------------------------------------------------------------17/18-16~---||
|---------------------4/16-----------------11/16-17-16-16/20-20----------------||
|-1/13----------------------16-15-16--15---------------------------------------||
|--------13-14-14-13~----------------------------------------------------------||
|------------------------------------------------------------------------------||
|------------------------------------------------------------------------------|| (fade)
Добавлено: 30.05.2012
Другие материалы по этой песне:

Страница создана 22.04.2012
http://primanota.ru/we-butter-the-bread-with-butter/13-wuensche-chords.htm
Привет, Гость.
Предлагаем пройти революционный курс по гитаре.
Подарок от PrimaNota.Ru, забирай!