PrimaNota.ru - самый крупный в мире бесплатный архив песенных текстов, аккордов, табулатур и нот


We As Human - Sever - таба, видео

Регистрация Запомнить меня
Войти через:  Facebook Google Twitter Vk Yandex Mail.ru

We As Human - Sever - таба, видео

Печатать
Просмотров: 252
This is played on a 7 string, but can also be played in open B tuning. If you do that, 
you can't play the epic shredding part.

INTRO

e---------------------------------------------------------------------------|
B---------------------------------------------------------------------------|
G---------------------------------------------------------------------------|
D---------------------------------------------------------------------------|
A---------------------------------------------------------------------------|
E--------------------------------------------------------------------555----|
B-12-10-12-0-13-12-10-12~-10-12-0-13-12-10-12~-10-12-0-13-12-10---111---1-0-|

e---------------------------------------------------------------------------|
B---------------------------------------------------------------------------|
G---------------------------------------------------------------------------|
D---------------------------------------------------------------------------|
A---------------------------------------------------------------------------|
E------------------------------------------------------------------5-5-5----|
B-10-12-0-13-12-10-12~-10-12-0-13-12-10-12~-10-12-0-13-12-10-1-1-1-------1--|

VERSE

e----------------------------------------------------|
B----------------------------------------------------|
G----------------------------------------------------|
D----------------------------------------------------|   2X
A----------------------------------------------------|
E------------------------------------------5-5-5-----|
B-0--0-0--***-0--0-0-****-0--0-0-***-1-1-1-------1---|

PRE-CHORUS

e---------------------------|
B---------------------------|
G---------------------------|
D---------------------------|
A-10-----2-----10-----9-----|
E-10-16X-2-16X-10-16X-9-16X-|
B-8------0-----8------7-----|

CHORUS

e-----------------|------------------|
B-----------------|(first time only)-|
G-----------------|------------------|
D-----7---9-------|--14-12-----------|      X2
A-2---5---7--9----|------14-12-------|
E-2---3---5--9----|----------14-12---|
B-0----------7----|------------------|


INTRO

VERSE

CHORUS

BRIDGE

e------------------------|
B------------------------|
G------------------------|
D------------------------|
A-7---10-----------------|
E-7---10-----------------|
B-5---8------------------|

epic shred

e-14~--------------------------------------------------------7----------------|
B-----15-12-------------------------------------------7-8-10---10-8-7---------|
G-----------14-12-11--------------------7~------6-7-9-----------------9-7-6-7-|
D--------------------12----------7-9-10-----7-9-------------------------------|
A----------------------14-7-9-10----------------------------------------------|
E-----------------------------------------------------------------------------|
B-----------------------------------------------------------------------------|

                   T  P
e----------7-9-10-14-10-9-7-10---|
B---7-8-10-----------------------|
G-9------------------------------|
D--------------------------------|
A--------------------------------|
E--------------------------------|
B--------------------------------|

(aftermath)

e----------------------|
B--12\15/8-7\10\3-3/5--|
G----------------------|
D----------------------|
A----------------------|
E----------------------|
B----------------------|

BACK TO CHORUS

e------------------------------------|
B------------------------------------|
G------------------------------------|
D------------------14-12-------------|
A--9-9-9-9-9-9-----------14-12-------|
E--9-9-9-9-9-9-----------------14-12-|
B--7-7-7-7-7-7-----------------------|

CHORUS (x number of times)

INTRO lick twice


THE END
Добавлено: 22.07.2013
Другие материалы по этой песне:
  • Аккорды и текст

Страница создана 22.07.2013
http://primanota.ru/we-as-human/sever-chords.htm
Привет, Гость.
Предлагаем пройти революционный курс по гитаре.
Подарок от PrimaNota.Ru, забирай!