PrimaNota.ru - самый крупный в мире бесплатный архив песенных текстов, аккордов, табулатур и нот


We As Human - I Stand - таба, видео

Регистрация Запомнить меня
Войти через:  Facebook Google Twitter Vk Yandex Mail.ru

We As Human - I Stand - таба, видео

Печатать
Просмотров: 165
This song is also played on a 7-string, but the e string isn't used, so it can be played 
on any open B tuned guitar.

INTRO

e-----------------------------------------------------------------------------|
B-----------------------------------------------------------------------------|
G-----------------------------------------------------------------------------|
D-----------------------------------------------------------------------------|  X2
A-----------------------------------------------------------------------------|
E---------------------------12------14----------------------------------------|
B-0-10-12-0-10-12-0-10-12-0----12-0----12-0-9-10-0-12-13-0-13-15-0-8-10-0-3-5-|

VERSE

e---------------------------------------------------------------|
B---------------------------------------------------------------|
G---------------------------------------------------------------|
D---------------------------------------------------------------|  X4 (times 3 and 4 no muting)
A----------------------------------------------------------5-5-5|
E------------------------------------------3-3-3----------------|
B-0--0-0-5-0-0-10-0-0-12-10-0-5-6-0-1--1-1-------3-3/5-5-5------|
  *  * * * * * *  * * *  *  * * * * *  * * * * * * * * * *

CHORUS

e----------------------------------------------------------------|
B----------------------------------------------------------------|
G----------------------------------------------------------------|
D----------------------------------------------------------------|
A-2-2---------2---------5--------7------------7-----5-5-5--5/-7--|
E-2-2-/7-7~---2-/7-7~---5-/10~---7-/12~--X3---7-X8--5-5-5--5/-7--|
B-0-0---------0---------3--------5------------5-----3-3-3--3/-5--|
                                              *     * * *  *  *

INTRO

That's all I know for now, I'll update the tab as I figure out more.
Добавлено: 16.08.2013
Другие материалы по этой песне:
  • Аккорды и текст

Страница создана 16.08.2013
http://primanota.ru/we-as-human/i-stand-chords.htm
Привет, Гость.
Предлагаем пройти революционный курс по гитаре.
Подарок от PrimaNota.Ru, забирай!