PrimaNota.ru - самый крупный в мире бесплатный архив песенных текстов, аккордов, табулатур и нот


We As Human - Dead Man - таба, бас-таба, видео

Регистрация Запомнить меня
Войти через:  Facebook Google Twitter Vk Yandex Mail.ru

We As Human - Dead Man - таба, бас-таба, видео

Печатать
Просмотров: 234
Уроки эстрадного вокала в Санкт-Петербурге
We As Human                                 http://www.weashuman.com/
Dead Man                                    http://www.myspace.com/weashuman
Tabbed by U B the band
Tuning C G C F A D

Legend
\-slide down                       /-slide up

We As Human is an awesome band and there are no tabs for them yet so I thought
I'd start tabbing some of their songs. Check out their official site and their
MySpace, the links are above the tab. Please comment and rate, Thank You. 

Intro: Guitar 1 (Distorted & Palm Muted) JUSTIN
D|----------------------------------------------------------------------------|
A|----------------------------------------------------------------------------|
F|---------8-8-8---------8-8-8-8-7-5-7---------8-8-8---------8-8-8-8-7-5-7----|
C|----------------------------------------------------------------------------|
G|--5-5-5---------5-5-5-----------------5-5-5---------5-5-5-------------------|
C|----------------------------------------------------------------------------|
                                                                              |
Intro: Guitar 2 (Distorted & Palm Muted) TOM                                  |
D|----------------------------------------------------------------------------|
A|----------------------------------------------------------------------------|
F|----------------------------------------------------------------------------|
C|----------------------------------------------------------------------------|
G|--5-5-5--5-5-5--5-5-5--5-5-5-5-5-5-5--5-5-5--5-5-5--5-5-5--5-5-5-5-5-5-5----|
C|----------------------------------------------------------------------------|

Intro: Guitar 1 (Distorted & Palm Muted) JUSTIN
D|----------------------------------------------------------------------------|
A|----------------------------------------------------------------------------|
F|---------8-8-8---------8-8-8-8-7-5-7---------8-8-8-------8------------------|
C|----------------------------------------------------------------------------|
G|--5-5-5---------5-5-5-----------------5-5-5---------5-5---------------------|
C|----------------------------------------------------------------------------|
                                                                              |
Intro: Guitar 2 (Distorted & Palm Muted) TOM                                  |
D|----------------------------------------------------------------------------|
A|----------------------------------------------------------------------------|
F|----------------------------------------------------------------------------|
C|---------7-7-7---------7-7-7-8-7-5-7---------7-7-7-------7------------------|
G|--5-5-5---------5-5-5-----------------5-5-5---------5-5---------------------|
C|----------------------------------------------------------------------------|

Pre Verse: Guitars 1 & 2 (Distorted) PLAY 2 TIMES
D|----------------------------------------------------------------------------|
A|----------------------------------------------------------------------------|
F|--7-7-7-7-7\5---8---------------------7-7-7-7-7\5---8-----------------------|
C|--x-x-x-x-x-x---x---------------------x-x-x-x-x-x---x-----------------------|
G|--5-5-5-5-5\3---6---------------------5-5-5-5-5\3---6-----------------------|
C|----------------------------------------------------------------------------|

Verse 1: Guitar 1 (Distorted)
D|--17------------------------------------------------------------------------|
A|--------15------------------------------16----------------------------------|
F|----------------------------------------------------------------------------|
C|----------------------------------------------------------------------------|
G|----------------------------------------------------------------------------|
C|----------------------------------------------------------------------------|
                                                                              |
Verse 1: Guitar 2 (Distorted & Palm Muted)                                    |
D|----------------------------------------------------------------------------|
A|----------------------------------------------------------------------------|
F|----------------------------------------------------------------------------|
C|----------------------------------------------------------------------------|
G|--0--0--0-----0--0--0---0---0--0--0-----0--0--0-----0--0--0---0---0--0--0---|
C|--0--0--0-----0--0--0---0---0--0--0-----0--0--0-----0--0--0---0---0--0--0---|

Verse 1: Guitar 1 (Distorted)
D|--17------------------------------------------------------------------------|
A|--------15------------------------------------------------------------------|
F|----------------------------------------17----------------15----------------|
C|----------------------------------------------------------------------------|
G|----------------------------------------------------------------------------|
C|----------------------------------------------------------------------------|
                                                                              |
Verse 1: Guitar 2 (Distorted & Palm Muted)                                    |
D|----------------------------------------------------------------------------|
A|----------------------------------------------------------------------------|
F|----------------------------------------------------------------------------|
C|----------------------------------------------------------------------------|
G|--0-----------0--0--0---0---0--0--0-----0--0--0-----0--0--0---0---0--0--0---|
C|--0-----------0--0--0---0---0--0--0-----0--0--0-----0--0--0---0---0--0--0---|

Verse 1: Guitar 1 (Distorted)
D|--17------------------------------------------------------------------------|
A|--------15------------------------------16----------------------------------|
F|----------------------------------------------------------------------------|
C|----------------------------------------------------------------------------|
G|----------------------------------------------------------------------------|
C|----------------------------------------------------------------------------|
                                                                              |
Verse 1: Guitar 2 (Distorted & Palm Muted)                                    |
D|----------------------------------------------------------------------------|
A|----------------------------------------------------------------------------|
F|----------------------------------------------------------------------------|
C|----------------------------------------------------------------------------|
G|--0-----------0--0--0---0---0--0--0-----0--0--0-----0--0--0---0---0--0--0---|
C|--0-----------0--0--0---0---0--0--0-----0--0--0-----0--0--0---0---0--0--0---|

Verse 1: Guitar 1 (Distorted)
D|--17------------------------------------------------------------------------|
A|--------15------------------------------------------------------------------|
F|----------------------------------------17----------------15----------------|
C|----------------------------------------------------------------------------|
G|----------------------------------------------------------------------------|
C|----------------------------------------------------------------------------|
                                                                              |
Verse 1: Guitar 2 (Distorted & Palm Muted)                                    |
D|----------------------------------------------------------------------------|
A|----------------------------------------------------------------------------|
F|----------------------------------------------------------------------------|
C|----------------------------------------------------------------------------|
G|--0-----------0--0--0---0---0--0--0-----0--0--0-----0--0--0---0---0--0--0---|
C|--0-----------0--0--0---0---0--0--0-----0--0--0-----0--0--0---0---0--0--0---|

Chorus: Guitar 1 (Distorted) PLAY ENTIRE CHORUS TWO TIMES
D|--17----------------------------------18------------------------------------|
A|----------------------------------------------------------------------------|
F|----------------------------------------------------------------------------|
C|----------------------------------------------------------------------------|
G|----------------------------------------------------------------------------|
C|----------------------------------------------------------------------------|
                                                                              |
Chorus: Guitar 2 (Distorted)                                                  |
D|----------------------------------------------------------------------------|
A|----------------------------------------------------------------------------|
F|--11111111-11111111-11111111-12121212-12121212-12121212-12121212-12121212---|
C|--0-0-0-0--0-0-0-0--0-0-0-0--0-0-0-0--10101010-10101010-10101010-10101010---|
G|--9-9-9-9--9-9-9-9--9-9-9-9--10101010-10101010-10101010-10101010-10101010---|
C|--0-0-0-0--0-0-0-0--0-0-0-0--0-0-0-0--10101010-10101010-10101010-10101010---|

Chorus: Guitar 1 (Distorted)
D|----------------------------------------------------------------------------|
A|--20----------------------------------18----------------17------------------|
F|----------------------------------------------------------------------------|
C|----------------------------------------------------------------------------|
G|----------------------------------------------------------------------------|
C|----------------------------------------------------------------------------|
                                                                              |
Chorus: Guitar 2 (Distorted)                                                  |
D|----------------------------------------------------------------------------|
A|----------------------------------------------------------------------------|
F|--7-7-7-7--7-7-7-7--7-7-7-7--7-7-7-7--10101010-10101010-9-9-9-9--9-9-9-9----|
C|--5-5-5-5--5-5-5-5--5-5-5-5--5-5-5-5--8-8-8-8--8-8-8-8--7-7-7-7--7-7-7-7----|
G|--5-5-5-5--5-5-5-5--5-5-5-5--5-5-5-5--8-8-8-8--8-8-8-8--7-7-7-7--7-7-7-7----|
C|--5-5-5-5--5-5-5-5--5-5-5-5--5-5-5-5--8-8-8-8--8-8-8-8--7-7-7-7--7-7-7-7----|

Post Chorus: Guitars 1 & 2 (Distorted & Palm Muted)
D|----------------------------------------------------------------------------|
A|----------------------------------------------------------------------------|
F|----------------------------------------------------------------------------|
C|----------------------------------------------------------------------------|
G|--0--0--0-----0--0--0---0---0--0--0-----0-------0--0------------------------|
C|--0--0--0-----0--0--0---0---0--0--0-----0--000--0--0------------------------|

Verse 2: Guitar 1 (Distorted)
D|--17------------------------------18----------------------------------------|
A|----------------------------------------18----------------------------------|
F|----------------------------------------------------------------------------|
C|----------------------------------------------------------------------------|
G|----------------------------------------------------------------------------|
C|----------------------------------------------------------------------------|
                                                                              |
Verse 2: Guitar 2 (Distorted & Palm Muted)                                    |
D|----------------------------------------------------------------------------|
A|----------------------------------------------------------------------------|
F|----------------------------------------------------------------------------|
C|----------------------------------------------------------------------------|
G|--0--0--0-----0--0--0---0---0--0--0-----0--0--0-----0--0--0---0---0--0--0---|
C|--0--0--0-----0--0--0---0---0--0--0-----0--0--0-----0--0--0---0---0--0--0---|

Verse 2: Guitar 1 (Distorted)
D|--17------------------------------18----------------------------------------|
A|----------------------------------------18----------17----------------------|
F|----------------------------------------------------------------------------|
C|----------------------------------------------------------------------------|
G|----------------------------------------------------------------------------|
C|----------------------------------------------------------------------------|
                                                                              |
Verse 2: Guitar 2 (Distorted & Palm Muted)                                    |
D|----------------------------------------------------------------------------|
A|----------------------------------------------------------------------------|
F|----------------------------------------------------------------------------|
C|----------------------------------------------------------------------------|
G|--0-----------0--0--0---0---0--0--0-----0--0--0-----0--0--0---0---0--0--0---|
C|--0-----------0--0--0---0---0--0--0-----0--0--0-----0--0--0---0---0--0--0---|

Verse 2: Guitar 1 (Distorted)
D|--17------------------------------------18----------------------------------|
A|----------------------------------------------------------------------------|
F|----------------------------------------------------------------------------|
C|----------------------------------------------------------------------------|
G|----------------------------------------------------------------------------|
C|----------------------------------------------------------------------------|
                                                                              |
Verse 2: Guitar 2 (Distorted & Palm Muted)                                    |
D|----------------------------------------------------------------------------|
A|----------------------------------------------------------------------------|
F|----------------------------------------------------------------------------|
C|----------------------------------------------------------------------------|
G|--0-----------0--0--0---0---0--0--0-----0--0--0-----0--0--0---0---0--0--0---|
C|--0-----------0--0--0---0---0--0--0-----0--0--0-----0--0--0---0---0--0--0---|

Verse 2: Guitar 1 (Distorted)
D|--20------------------------------------------------------------------------|
A|----------------------------------------20----------------18----------------|
F|----------------------------------------------------------------------------|
C|----------------------------------------------------------------------------|
G|----------------------------------------------------------------------------|
C|----------------------------------------------------------------------------|
                                                                              |
Verse 2: Guitar 2 (Distorted & Palm Muted)                                    |
D|----------------------------------------------------------------------------|
A|----------------------------------------------------------------------------|
F|----------------------------------------------------------------------------|
C|----------------------------------------------------------------------------|
G|--0-----------0--0--0---0---0--0--0-----0--0--0-----0--0--0---0---0--0--0---|
C|--0-----------0--0--0---0---0--0--0-----0--0--0-----0--0--0---0---0--0--0---|

Chorus: Guitar 1 (Distorted) PLAY ENTIRE CHORUS TWO TIMES
D|--17----------------------------------18------------------------------------|
A|----------------------------------------------------------------------------|
F|----------------------------------------------------------------------------|
C|----------------------------------------------------------------------------|
G|----------------------------------------------------------------------------|
C|----------------------------------------------------------------------------|
                                                                              |
Chorus: Guitar 2 (Distorted)                                                  |
D|----------------------------------------------------------------------------|
A|----------------------------------------------------------------------------|
F|--11111111-11111111-11111111-12121212-12121212-12121212-12121212-12121212---|
C|--0-0-0-0--0-0-0-0--0-0-0-0--0-0-0-0--10101010-10101010-10101010-10101010---|
G|--9-9-9-9--9-9-9-9--9-9-9-9--10101010-10101010-10101010-10101010-10101010---|
C|--0-0-0-0--0-0-0-0--0-0-0-0--0-0-0-0--10101010-10101010-10101010-10101010---|

Chorus: Guitar 1 (Distorted)
D|----------------------------------------------------------------------------|
A|--20----------------------------------18----------------17------------------|
F|----------------------------------------------------------------------------|
C|----------------------------------------------------------------------------|
G|----------------------------------------------------------------------------|
C|----------------------------------------------------------------------------|
                                                                              |
Chorus: Guitar 2 (Distorted)                                                  |
D|----------------------------------------------------------------------------|
A|----------------------------------------------------------------------------|
F|--7-7-7-7--7-7-7-7--7-7-7-7--7-7-7-7--10101010-10101010-9-9-9-9--9-9-9-9----|
C|--5-5-5-5--5-5-5-5--5-5-5-5--5-5-5-5--8-8-8-8--8-8-8-8--7-7-7-7--7-7-7-7----|
G|--5-5-5-5--5-5-5-5--5-5-5-5--5-5-5-5--8-8-8-8--8-8-8-8--7-7-7-7--7-7-7-7----|
C|--5-5-5-5--5-5-5-5--5-5-5-5--5-5-5-5--8-8-8-8--8-8-8-8--7-7-7-7--7-7-7-7----|

Bridge: Guitar 1 (Distorted) PLAY ENTIRE BRIDGE 2 TIMES
D|----------------------------------------------------------------------------|
A|----------------------------------------------------------------------------|
F|--7----------------10101010-9-9-9---7----------------10101010-1212--14------|
C|--x----------------x-x-x-x--x-x-x---x----------------x-x-x-x---x-x---x------|
G|--5----------------8-8-8-8--7-7-7---5----------------8-8-8-8--1010--12------|
C|----------------------------------------------------------------------------|
                                                                              |
Bridge: Guitar 2 (Distorted)                                                  |
D|----------------------------------------------------------------------------|
A|----------------------------------------------------------------------------|
F|-------------------10101010-9-9-9--------------------10101010-5-5---7-------|
C|--0----------------x-x-x-x--x-x-x---0----------------x-x-x-x--x-x---x-------|
G|--0----------------8-8-8-8--7-7-7---0----------------8-8-8-8--3-3---5-------|
C|--0---------------------------------0---------------------------------------|

Chorus 2: Guitar 2 (Clean with Reverb) PLAY TWO TIMES
D|----------------------------------------------------------------------------|
A|----------------------------------------------------------------------------|
F|----------------------------------------------------------------------------|
C|-----7--------------12-------------7-h8--------------10-------------10------|
G|--0-----7-h8--------10----------5-----------------8--------------7----------|
C|--0-----------------10-------5-----------------8--------------7-------------|

Chorus: Guitar 1 (Distorted) PLAY ENTIRE CHORUS TWO TIMES
D|--17----------------------------------18------------------------------------|
A|----------------------------------------------------------------------------|
F|----------------------------------------------------------------------------|
C|----------------------------------------------------------------------------|
G|----------------------------------------------------------------------------|
C|----------------------------------------------------------------------------|
                                                                              |
Chorus: Guitar 2 (Distorted)                                                  |
D|----------------------------------------------------------------------------|
A|----------------------------------------------------------------------------|
F|--11111111-11111111-11111111-12121212-12121212-12121212-12121212-12121212---|
C|--0-0-0-0--0-0-0-0--0-0-0-0--0-0-0-0--10101010-10101010-10101010-10101010---|
G|--9-9-9-9--9-9-9-9--9-9-9-9--10101010-10101010-10101010-10101010-10101010---|
C|--0-0-0-0--0-0-0-0--0-0-0-0--0-0-0-0--10101010-10101010-10101010-10101010---|

Chorus: Guitar 1 (Distorted)
D|----------------------------------------------------------------------------|
A|--20----------------------------------18----------------17------------------|
F|----------------------------------------------------------------------------|
C|----------------------------------------------------------------------------|
G|----------------------------------------------------------------------------|
C|----------------------------------------------------------------------------|
                                                                              |
Chorus: Guitar 2 (Distorted)                                                  |
D|----------------------------------------------------------------------------|
A|----------------------------------------------------------------------------|
F|--7-7-7-7--7-7-7-7--7-7-7-7--7-7-7-7--10101010-10101010-9-9-9-9--9-9-9-9----|
C|--5-5-5-5--5-5-5-5--5-5-5-5--5-5-5-5--8-8-8-8--8-8-8-8--7-7-7-7--7-7-7-7----|
G|--5-5-5-5--5-5-5-5--5-5-5-5--5-5-5-5--8-8-8-8--8-8-8-8--7-7-7-7--7-7-7-7----|
C|--5-5-5-5--5-5-5-5--5-5-5-5--5-5-5-5--8-8-8-8--8-8-8-8--7-7-7-7--7-7-7-7----|

Outro: Guitars 1 & 2 (Distorted)
D|----------------------------------------------------------------------------|
A|----------------------------------------------------------------------------|
F|----------------------------------10------------------------------------10--|
C|----------------------------------x-------------------------------------x---|
G|----------------------------------8-------------------------------------8---|
C|--0--0--0-----0--0--0---0---0--0--------0--0--0-----0--0--0---0---0--0------|

Outro: Guitars 1 & 2 (Distorted)
D|----------------------------------------x--x--x-----------------------------|
A|----------------------------------------x--x--x-----------------------------|
F|----------------------------------10----x--x--x-----------------------------|
C|----------------------------------x-----x--x--x-----------------------------|
G|----------------------------------8-----x--x--x-----------------------------|
C|--0--0--0-----0--0--0---0---0--0--------x--x--x-----------------------------|

Finished!
Добавлено: 08.06.2012
Другие материалы по этой песне:

Страница создана 14.05.2012
http://primanota.ru/we-as-human/dead-man-chords.htm
Привет, Гость.
Предлагаем пройти революционный курс по гитаре.
Подарок от PrimaNota.Ru, забирай!