PrimaNota.ru - самый крупный в мире бесплатный архив песенных текстов, аккордов, табулатур и нот


We Are The Ocean - What It Feels Like - текст песни, таба, видео

Регистрация Запомнить меня
Войти через:  Facebook Google Twitter Vk Yandex Mail.ru

We Are The Ocean - What It Feels Like - текст песни, таба, видео

Печатать
Просмотров: 70
Basically, this is as close as I could get to it by ear. Think its mostly right, however :)

Verse 1

Guitar 1 and 2 (the pattern is kind of tricky to tab out, but easy to figure out 
with the song, if that makes sense? ) 

e|------------------------------------------|
B|------------------------------------------|
G|--4-4--4-4-4-------1-1--1-1-1--3-3--3-3-3-|
D|--6-6--6-6-6-------2-2--2-2-2--4-4--4-4-4-|
A|--6-6--6-6-6-------2-2--2-2-2--4-4--4-4-4-|
D|--6-6--6-6-6-(x2)--2-2--2-2-2--4-4--4-4-4-|x4

(And all I need...)

Guitar 1(figure out timing from the song, it's not that hard :))

e|----------------------------------|
B|----------------------------------|
G|-1-----3-------------4----3-------|
D|-2-----4------4------6----4-------|
A|-2-----4------4------6----4-------|
D|-2x8---4x8----5x8----6x4--4x4-----|

(I'm here to tell you...)

e|-----------------|
B|-----------------|
G|-1--------3------|
D|-2--------4------|
A|-2--------4------|
D|-2-x16----4-x16--|

Guitar 2 (can be a little complicated, but I'll try and make it easier)

(And all I need...)
e|-----------------------|
B|-4h54------------------|
G|-------4---------------|
D|----------6p4----------|
A|-----------------------|
D|-----------------------|

(Is someone to answer me)

e|---------------|
B|---------------|
G|---------4~----|
D|---6~----------|
A|---------------|
D|---------------|

e|----------------------|
B|---5s4----------------|
G|--------4--6s4-4------|
D|------------------6---|
A|----------------------|
D|----------------------|

(I'm here to tell you...)

e|-----------------------|
B|-4h54------------------|
G|-------4---------------|
D|----------6p4----------|
A|-----------------------|
D|-----------------------|


e|---------------|
B|---------------|
G|---------4~----|
D|---6~----------|
A|---------------|
D|---------------|


(I need to tell myself)

e|-------------------|
B|---------7-4-4-4---|
G|--8-6-6------------|
D|-------------------|
A|-------------------|
D|-------------------|

Chorus
Guitar 1

e|-------------------------------------------------------|
B|-------------------------------------------------------|
G|-4-----8----3------1----3-----4-----3----1-------------|
D|-6-----9----4------2----4-----6-----4----2-------------|
A|-6-----9----4------2----4-----6-----4----2-------------|
D|-6x8---9x8--4-x8---2x4--4x4---6x8---4x8--2x16----------|x2

Guitar 2(Alot)

e|--------7-7-7-----------------|
B|----7h9-----------------------|
G|6h8-----------8-8-8-8-6-6-6-6-|
D|------------------------------|
A|------------------------------|
D|------------------------------|

e|-------------------------------|
B|-7---7---7---7---9---9---9---9-|
G|---8---8---8---8---8---8---8---|
D|-------------------------------|
A|-------------------------------|
D|-------------------------------|

Start of verse 2 is just this note constantly, on Guitar 2. Add a slight bend, if you want.

e|-----|
B|--9--|
G|-----|
D|-----|
A|-----|
D|-----|

Verse 2
e|------------------------------------------|
B|------------------------------------------|
G|--4-4--4-4-4-------1-1--1-1-1--3-3--3-3-3-|
D|--6-6--6-6-6-------2-2--2-2-2--4-4--4-4-4-|
A|--6-6--6-6-6-------2-2--2-2-2--4-4--4-4-4-|
D|--6-6--6-6-6-(x2)--2-2--2-2-2--4-4--4-4-4-|x2

Pre chorus
Guitar 1(figure out timing from the song, it's not that hard :))

e|----------------------------------|
B|----------------------------------|
G|-1-----3-------------4----3-------|
D|-2-----4------4------6----4-------|
A|-2-----4------4------6----4-------|
D|-2x8---4x8----5x8----6x4--4x4-----|

(I'm here to tell you...)

e|-----------------|
B|-----------------|
G|-1--------3------|
D|-2--------4------|
A|-2--------4------|
D|-2-x16----4-x16--|

Guitar 2 (can be a little complicated, but I'll try and make it easier)

(And all I need...)
e|-----------------------|
B|-4h54------------------|
G|-------4---------------|
D|----------6p4----------|
A|-----------------------|
D|-----------------------|

(Is someone to answer me)

e|---------------|
B|---------------|
G|---------4~----|
D|---6~----------|
A|---------------|
D|---------------|

e|----------------------|
B|---5s4----------------|
G|--------4--6s4-4------|
D|------------------6---|
A|----------------------|
D|----------------------|

(I'm here to tell you...)

e|-----------------------|
B|-4h54------------------|
G|-------4---------------|
D|----------6p4----------|
A|-----------------------|
D|-----------------------|


e|---------------|
B|---------------|
G|---------4~----|
D|---6~----------|
A|---------------|
D|---------------|


(I need to tell myself)

e|-------------------|
B|---------7-4-4-4---|
G|--8-6-6------------|
D|-------------------|
A|-------------------|
D|-------------------|

Chorus
Guitar 1

e|-------------------------------------------------------|
B|-------------------------------------------------------|
G|-4-----8----3------1----3-----4-----3----1-------------|
D|-6-----9----4------2----4-----6-----4----2-------------|
A|-6-----9----4------2----4-----6-----4----2-------------|
D|-6x8---9x8--4-x8---2x4--4x4---6x8---4x8--2x16----------|x2

Guitar 2(Alot)

e|--------7-7-7-----------------|
B|----7h9-----------------------|
G|6h8-----------8-8-8-8-6-6-6-6-|
D|------------------------------|
A|------------------------------|
D|------------------------------|

e|-------------------------------|
B|-7---7---7---7---9---9---9---9-|
G|---8---8---8---8---8---8---8---|
D|-------------------------------|
A|-------------------------------|
D|-------------------------------|

End of Chorus 2
Guitar 1

e|--------------------------------------------------|
B|--------------------------------------------------|
G|3--3--3--3--3--3--3--3---6--6--6--6--6--6--6--6---|
D|4--4--4--4--4--4--4--4---5--5--5--5--5--5--5--5---|
A|4--4--4--4--4--4--4--4---4--4--4--4--4--4--4--4---|
D|4--4--4--4--4--4--4--4---5--5--5--5--5--5--5--5---|

Guitar 2

e|-----------------------------------9s11~------------|
B|--11-(x16)--9-----9-----9-----9---------------------|
G|--------------12----12----12----12------------------|
D|----------------------------------------------------|
A|----------------------------------------------------|
D|----------------------------------------------------|

Clean bit 
Guitar 1

e|----------------------------------|
B|----------------------------------|
G|--4~---8~--3~-------4~--3~--1~----|
D|--6~---9~--4~-------6~--4~--2~----|
A|--6~---9~--4~-------6~--4~--2~----|
D|--6~---9~--4~-------6~--4~--2~----|x 2


Chorus
Guitar 1

e|-------------------------------------------------------|
B|-------------------------------------------------------|
G|-4-----8----3------1----3-----4-----3----1-------------|
D|-6-----9----4------2----4-----6-----4----2-------------|
A|-6-----9----4------2----4-----6-----4----2-------------|
D|-6x8---9x8--4-x8---2x4--4x4---6x8---4x8--2x16----------|x2

Guitar 2(Alot)

e|--------7-7-7-----------------|
B|----7h9-----------------------|
G|6h8-----------8-8-8-8-6-6-6-6-|
D|------------------------------|
A|------------------------------|
D|------------------------------|

e|-------------------------------|
B|-7---7---7---7---9---9---9---9-|
G|---8---8---8---8---8---8---8---|
D|-------------------------------|
A|-------------------------------|
D|-------------------------------|

Right, well, that's it. Email me if there's any questions etc :)
Добавлено: 20.07.2013
Другие материалы по этой песне:

Страница создана 06.07.2013
http://primanota.ru/we-are-the-ocean/what-it-feels-like-chords.htm
Привет, Гость.
Предлагаем пройти революционный курс по гитаре.
Подарок от PrimaNota.Ru, забирай!