PrimaNota.ru - самый крупный в мире бесплатный архив песенных текстов, аккордов, табулатур и нот


We Are Scientists - Secret Handshake - таба, видео

Регистрация Запомнить меня
Войти через:  Facebook Google Twitter Vk Yandex Mail.ru

We Are Scientists - Secret Handshake - таба, видео

Печатать
Просмотров: 106
Secret Handshake – We Are Scientists
Tabbed by Jimbompaleen

This is an awesome song by We Are Scientists from their In Action EP

Intro/Verse
e-------------|
B-------------|
G----7-6------|
D--------7-5--|
A-------------|
E-------------|

X4
e----------------------------------------||-------|
B----------------------------------------||-------|   On 4th time
G-------------7-6----------------7-6-----||-------| < skip the 7 6  7 5
D-5-555-555-------7-5-5-555-555------7-5-||--5-7--|   and play
A-5-555-555-----------5-555-555----------||--5-7--|
E-3-333-333-----------3-333-333----------||--3-7--|


Chorus
e----x-x-x---x-x-x---x-x-x---x-x-x---x-x-x---x-x-x---x-x-x--------|
B----x-x-x---x-x-x---x-x-x---x-x-x---x-x-x---x-x-x---x-x-x--------|
G--7-x-x-x---x-x-x-7-x-x-x---x-x-x-7-x-x-x---x-x-x-7-x-x-x--------|
D--7-x-x-x-7-x-x-x-7-x-x-x-7-x-x-x-7-x-x-x-7-x-x-x-7-x-x-x-7-8----|
A--5-x-x-x-7-x-x-x-5-x-x-x-7-x-x-x-5-x-x-x-7-x-x-x-5-x-x-x-7-8----|
E----x-x-x-5-x-x-x---x-x-x-5-x-x-x---x-x-x-5-x-x-x---x-x-x-5-6----|

e-----x-x-x---x-x-x---x-x-x---x-x-x---x-x-x---x-x-x---x-x-x---------|
B-----x-x-x---x-x-x---x-x-x---x-x-x---x-x-x---x-x-x---x-x-x---------|
G-----x-x-x---x-x-x---x-x-x---x-x-x---x-x-x---x-x-x---x-x-x---------|
D---9-x-x-x-4-x-x-x-9-x-x-x-4-x-x-x-9-x-x-x-4-x-x-x-9-x-x-x-4-7-----|
A---9-x-x-x-4-x-x-x-9-x-x-x-4-x-x-x-9-x-x-x-4-x-x-x-9-x-x-x-4-7-----|
E---7-x-x-x-2-x-x-x-7-x-x-x-2-x-x-x-7-x-x-x-2-x-x-x-7-x-x-x-2-5-----|

Verse x2

Chorus


Bridge

X4
e-------------------------------------|
B--7---7---7---7---10-----8p7---7-----|
G----7---7---7---7----7-7-----7---7---|
D-------------------------------------|
A-------------------------------------|
E-------------------------------------|

X6
e---14--------------||-------------|
B---------15--------||-------------|
G---------------14--||-------------|
D-------------------||--9~---------|
A-------------------||--9~---------|
E-------------------||--7~---------|

Verse x2

Chorus

Verse x2 then

X16
e-------------|
B-------------|
G----7-6------|
D--------7-5--|
A-------------|
E-------------|


And that's it.
Have fun playing
Добавлено: 31.05.2012
Другие материалы по этой песне:
  • Аккорды и текст

Страница создана 31.05.2012
http://primanota.ru/we-are-scientists/secret-handshake-chords.htm
Привет, Гость.
Предлагаем пройти революционный курс по гитаре.
Подарок от PrimaNota.Ru, забирай!