PrimaNota.ru - самый крупный в мире бесплатный архив песенных текстов, аккордов, табулатур и нот


We Are Defiance - Welcome To The Sunshine State - таба, видео

Регистрация Запомнить меня
Войти через:  Facebook Google Twitter Vk Yandex Mail.ru

We Are Defiance - Welcome To The Sunshine State - таба, видео

Печатать
Просмотров: 85
-------------------------------------------------------------------------------
                             Welcome To The Sunshine State - We Are Defiance
-------------------------------------------------------------------------------
Tabbed by: Adam Guion
Email: AdamGuion@gmail.com

Tuning: Drop Beeezy!

I don't tab often but when I do, it's usually right. Tell me if you find mistakes though! 
Btw, I'm not completely sure about the number of 0s in between the hammer-ons,but if you 
know what you're doing then you should know what I'm getting at.

Both Guitars
C#|---------------------------------------------------------------------------|
G#|---------------------------------------------------------------------------|
E |---------------------------------------------------------------------------|
B |---------------------------------------------------------------------------| X2
F#|-0~~0000000~~~00000000~0~0~0~0~0~~~000000~~~00000000-0~0~0-----------------|
B |-0~~0000000~~~00000000~0~0~0~0~0~~~000000~~~00000000-0~0~0-----------------|
    *  *******   ******** * * * * *   ******   ******** * * *
C#|---------------------------------------------------------------------------|
G#|---------------------------------------------------------------------------|
E |---------------------------------------------------------------------------|
B |---------------------------------------------------------------------------| X2
F#|-0~~0000000~~~00000000~0~0~0~0~0~~~000000~~~00000000-0~0~0-----------------|
B |-1~~1111111~~~11111111~1~1~1~1~1~~~111111~~~11111111-1~1~1-----------------|
    *  *******   ******** * * * * *   ******   ******** * * *

Guitar Uno
C#|---------------------------------------------------------------------------|
G#|---------------------------------------------------------------------------|
E |---------------------------------------------------------------------------|
B |-0~~~~~~~~~~~~-0~~~~~~~~~~~~~~---------------------------------------------|
F#|-0~~~~~~~~~~~~-0~~~~~~~~~~~~~~---------------------------------------------|
B |-0~~~~~~~~~~~~-0~~~~~~~~~~~~~~---------------------------------------------|

Guitar Dos
G#|--------------------------------------------------------------------------|
G#|--------------------------------------------------------------------------|
E |--------------------------------------------------------------------------|
B |--------------------------------------------------------------------0-----|
F#|----5h8-----5h8-4h7---5h8-----5h8-8h12---5h8------5h8-4h7---5h8-----0-----|
B |-000---00000---0---000---00000---0----000---000000---0---000---0000-0-----|
    ***   *****   *   ***   *****   *    ***   ******   *   ***   ****


Both Guitars
G#|---------------------------------------------------------------------------------------|
G#|---------------------------------------------------------------------------------------|
E |---------------------------------------------------------------------------------------|
B |---------------------------------------------------------------------------------------| X4
F#|----5h8-----5h8-4h7---5h8-----5h8-8h12---5h8------5h8-4h7---5h8-----5h8---5h8-5h12-----|
B |-000---00000---0---000---00000---0----000---000000---0---000---00000---000---0---------|
    ***   *****   *   ***   *****   *    ***   ******   *   ***   *****   ***   *

Guitar Uno
C#|---------------------------------------------------------------------------|
G#|---------------------------------------------------------------------------|
E |---------------------------------------------------------------------------|
B |---------------------------------------------------------------------------|
F#|-00--000000----000-0-00------000000----00000-------------------------------|
B |-00--000000----000-0-00------000000----00111-------------------------------|
    **  ******    *** * **      ******    *****
Guitar Dos
C#|---------------------------------------------------------------------------------------|
G#|---------------------------------------------------------------------------------------|
E |---------------------------------------------------------------------------------------|
B |---------------------------------------------------------------------------------------| 
F#|----5h8-----5h8-4h7---5h8-----5h8-8h12---5h8------5h8-4h7---5h8-----5h8---5h8-5h12-----|
B |-000---00000---0---000---00000---0----000---000000---0---000---00000---000---0---------|
    ***   *****   *   ***   *****   *    ***   ******   *   ***   *****   ***   *


Both Guitars
C#|-------------------------------------------------------|
G#|-------------------------------------------------------|
E |-------------------------------------------------------|
B |-------------------------------------------------------| X 2
F#|-00--000000--000-0-00--000000-00000--------------------|
B |-00--000000--000-0-00--000000-00111--------------------|
    **  ******  *** * **  ****** *****

Just one guitar
C#|------------------------|
G#|------------------------|
E |------------------------|
B |------------------------|
F#|------------------------|
B |-0-3-5-7-8-7-3~~~~~~----|

Both Guitars

C#|---------------------------------------------------------------------------|
G#|---------------------------------------------------------------------------|
E |---------------------------------------------------------------------------|
B |-0------0---0----------------0------0---0----------------------------------| X2
F#|-0-0000-0-0-0-000000---------0-0000-0-0-0----------------------------------|
B |-0-0000-0-0-0-000000-1b------0-0000-0-0-0-0-3-5-7-8-7-3--------------------|
      ****   *   ******           ****   *
C#|---------------------------------------------------------------------------|
G#|---------------------------------------------------------------------------|
E |---------------------------------------------------------------------------|X2
B |---------------------------------------------------------------------------|
F#|-00-0-000000-00-00--0-0000-------------------------------------------------|
B |-00-0-000000-11-00--0-0000-0-3-5-7-8-7-3-----------------------------------|
    ** * ****** ** **  * ****
C#|---------------------------------------------------------------------------|
G#|---------------------------------------------------------------------------|
E |---------------------------------------------------------------------------|
B |-0~~~~~~~0-----------------------------------------------------------------|
F#|-0~~~~~~~0-----------------------------------------------------------------|
B |-0~~~~~~~0-----------------------------------------------------------------|
            *



************************************
| *   palm mute
| /   slide up
| \   slide down
| h   hammer-on
| p   pull-off
| ~   vibrato
| +   harmonic
| x   Mute note
| b   Bend
| pb  Pre-bend
| br  Bend release
| pbr Pre-bend release
| brb Bend release bend

************************************
Добавлено: 21.10.2013
Другие материалы по этой песне:

Страница создана 21.10.2013
http://primanota.ru/we-are-defiance/welcome-to-the-sunshine-state-chords.htm
Привет, Гость.
Предлагаем пройти революционный курс по гитаре.
Подарок от PrimaNota.Ru, забирай!