PrimaNota.ru - самый крупный в мире бесплатный архив песенных текстов, аккордов, табулатур и нот


wazimbo - Nwahulwana - таба, видео

Регистрация Запомнить меня
Войти через:  Facebook Google Twitter Vk Yandex Mail.ru

wazimbo - Nwahulwana - таба, видео

Печатать
Просмотров: 47
Wazimbo - Nwahulwana (From "The Pledge" Movie Soundtrack)

h = Hammer On
p = Pull Off
/ = Slide
~ = Vibrato
* = Harmonic

Tabbed by: dave@customguitartabs.com
Submitted by: mkonopa
E-mail: rr82rip@gmail.com

Tuned Down 1 Whole Step

Intro crescendo and then repeats throughout (Finger Picking)

                       P                    p
D--------2---2------2-2-0------2---2-----3-2-0-------------------------|
A--------------------------------------3-------------------------------|
F----------2------2--------------2-------------------------------------|
C-----0---------------------0------------------------------------------|
G----------------------------------------------------------------------|
D----------------------------------------------------------------------|

                                                  p
D-------------0----------0--3----------3-------------------------------|
A--------1------------1-----------0----------0-1-1-0-------------------|
F----------------------------------------------------------------------|
C----------2------------------------0----------------------------------|
G-----3----------------------------------------------------------------|
D------------------------------3---------------------------------------|
Добавлено: 09.06.2016
Другие материалы по этой песне:
  • Аккорды и текст

Страница создана 09.06.2016
http://primanota.ru/wazimbo/nwahulwana-chords.htm
Привет, Гость.
Предлагаем пройти революционный курс по гитаре.
Подарок от PrimaNota.Ru, забирай!