PrimaNota.ru - самый крупный в мире бесплатный архив песенных текстов, аккордов, табулатур и нот


Wayward Daughter - Yours For The Keeping - таба, видео

Регистрация Запомнить меня
Войти через:  Facebook Google Twitter Vk Yandex Mail.ru

Wayward Daughter - Yours For The Keeping - таба, видео

Печатать
Просмотров: 96
Standard Tuning

Capo 11th Fret

D: Strum down
U: Strum up
s: slide

(Note: Lyrics are not always perfectly aligned to the right notes)
Use their performance for reference: http://www.youtube.com/watch?v=4ZKvewk3mRk


E|--------3-------3-------3-------3--|-------2-------2-------2-------2---|
B|----3-------3-------3-------3------|---3-------3-------3-------3-------|
G|--0---0---0---0---0---0---0---0----|-0---0---0---0---0---0---0---0-----|
D|-----------------------------------|-----------------------------------|
A|-----------------------------------|-----------------------------------|
E|-----------------------------------|-----------------------------------|

                                                          Close the...

 |--------3-------3-------3-------3--|-------2-------2 (let ring) -------|
 |----3-------3-------3-------3------|---3-------3-----------------------|
 |--0---0---0---0---0---0---0---0----|-0---0---0---0---------------------|
 |-----------------------------------|-----------------------------------|
 |-----------------------------------|-----------------------------------|
 |-----------------------------------|-----------------------------------|

  door...                                                       'Cause the
 |--------3-------3-------3-------3--|-------2-------2-------2-------2---|
 |----3-------3-------3-------3------|---3-------3-------3-------3-------|
 |--0---0---0---0---0---0---0---0----|-0---0---0---0---0---0---0---0-----|
 |-----------------------------------|-----------------------------------|
 |-----------------------------------|-----------------------------------|
 |-----------------------------------|-----------------------------------|

  night...                                                        Hold me
 |--------3-------3-------3-------3--|-------2-------2-------2-------2---|
 |----3-------3-------3-------3------|---3-------3-------3-------3-------|
 |--0---0---0---0---0---0---0---0----|-0---0---0---0---0---0---0---0-----|
 |-----------------------------------|-----------------------------------|
 |-----------------------------------|-----------------------------------|
 |-----------------------------------|-----------------------------------|

  close...                                                   'Cause you are
 |--------3-------3-------3-------3--|-------2-------2-------2-------2---|
 |----3-------3-------3-------3------|---3-------3-------3-------3-------|
 |------0---0---0---0---0---0---0----|-----0---0---0---0---0---0---0-----|
 |--0--------------------------------|--0--------------------------------|
 |-----------------------------------|-----------------------------------|
 |-----------------------------------|-----------------------------------|
  
  everything....
 |--------3-------3-------3-------3--|-------2-------2 (let ring)--------|
 |----3-------3-------3-------3------|---3-------3-----------------------|
 |------0---0---0---0---0---0---0----|-----0---0---0---------------------|
 |--0--------------------------------|--0--------------------------------|
 |-----------------------------------|-----------------------------------|
 |-----------------------------------|-----------------------------------|

                                                          Chorus: You
 |-----------------------------------|-----------------------------------|
 |-----------------------------------|-----------------------------------|
 |------0----0----0----0---0----0----|----0-------0----------------------|
 |----0----0----0----0---------------|----------0---------0--------0-0---|
 |--3----2----5----5----5----5-------|--3---3-----------2------2---2-2---|
 |-----------------------------------|--------------2-3------3-----3-3---|
                                                                   D U

   have      my      heart      yours    for    the     keep    -ing   You
 |-----------------------------------|-----------------------------------|
 |-----------------------------------|-----------------------------------|
 |-----------------------------------|-----------------------------------|
 |--2------------------2-------------|---0-------------------------------|
 |--2------------------3-------------|---2-------------------------------|
 |--0------------------0-------------|---3--------------------------2----|
    D                  D                 D

   are      the      first      thing    I    be   -lieved     in     And
 |-----------------------------------|------------3------------------3-3-|
 |-----------------------------------|---------------3---------------3-3-|
 |---------------------0-------------|----------------------0--------0-0-|
 |--2------------------2-------------|---0---------------------------0-0-|
 |--2------------------3-------------|---2---------------------------2-2-|
 |--0------------------0-------------|---3---------------------------3-3-|
    D                  D                 D                           D U

   now     I'm       yours      and     you    are     mine     to   -night
 |------0------------------0---------|-----------------------------------|
 |----------0------------------0-----|-------------0---------------------|
 |--------------0------------------0-|-----------0--------0--------------|
 |--2------------------2-------------|---0----------------------0--0-----|
 |--2------------------3-------------|---2----------------------2--2-----|
 |--0------------------0-------------|---3----------------------3--3-----|
    D                  D                                        D  U

 |--0----------------0---0---0---0---|---0----------------0---0---0---0--|
 |--0----------------0---0---0---0---|---0----------------0---0---0---0--|
 |--0----------------0---0---0---0---|---0----------------0---0---0---0--|
 |--2----------------2---2---2---2---|---0----------------0---0---0---0--|
 |--2----------------2---2---2---2---|---2----------------2---2---2---2--|
 |--0----------------0---0---0---0---|---3----------------3---3---3---3--|
    D                D   U   D   U       D                D   U   D   U

                                                                 Take my
 |--0--------0---------0---------0---|---0--------0--------0-------------|
 |--3--------3---------3---------3---|---3--------3--------3-------------|
 |--0--------0---------0---------0---|---0--------0--------0-------------|
 |--4--------4---------4---------4---|---4--------4--------4-------------|
 |--5--------5---------5---------5---|---5--------5--------5-------------|
 |--0--------0---------0---------0---|---0--------0--------0-------------|
    D        D         D         D       D        D        D (let ring)

  hand...                                                  You're   my
 |--------3-------3-------3-------3--|-------2-------2-------2-------2---|
 |----3-------3-------3-------3------|---3-------3-------3-------3-------|
 |--0---0---0---0---0---0---0---0----|-0---0---0---0---0---0---0---0-----|
 |-----------------------------------|-----------------------------------|
 |-----------------------------------|-----------------------------------|
 |-----------------------------------|-----------------------------------|

  anchor...                                                   Lead   the
 |--------3-------3-------3-------3--|-------2-------2-------2-------2---|
 |----3-------3-------3-------3------|---3-------3-------3-------3-------|
 |--0---0---0---0---0---0---0---0----|-0---0---0---0---0---0---0---0-----|
 |-----------------------------------|-----------------------------------|
 |-----------------------------------|-----------------------------------|
 |-----------------------------------|-----------------------------------|

  way...                                                       You're  the
 |--------3-------3-------3-------3--|-------2-------2-------2-------2---|
 |----3-------3-------3-------3------|---3-------3-------3-------3-------|
 |------0---0---0---0---0---0---0----|-----0---0---0---0---0---0---0-----|
 |--0--------------------------------|--0--------------------------------|
 |-----------------------------------|-----------------------------------|
 |-----------------------------------|-----------------------------------|

  rose...
 |--------3-------3-------3-------3--|-------2-------2-------2-------2---|
 |----3-------3-------3-------3------|---3-------3-------3-------3-------|
 |------0---0---0---0---0---0---0----|-----0---0---0---0---0---0---0-----|
 |--0--------------------------------|--0--------------------------------|
 |-----------------------------------|-----------------------------------|
 |-----------------------------------|-----------------------------------|



                                                          Chorus: You
 |-----------------------------------|-----------------------------------|
 |-----------------------------------|-----------------------------------|
 |------0----0----0----0---0----0----|----0-------0----------------------|
 |----0----0----0----0---------------|----------0---------0--------0-0---|
 |--3----2----5----5----5----5-------|--3---3-----------2------2---2-2---|
 |-----------------------------------|--------------2-3------3-----3-3---|
                                                                   D U

   have      my     heart   yours       for    the     keep    -ing   You
 |-----------------------------------|----------------------------3-5----|
 |--0--------------------------------|--------------------------------0--|
 |--0-------0--0--0------------------|-----------------------------------|
 |--2-------2--2--2---2---2--2--2--2-|---0-------------------------------|
 |--2-------2--2--2---3---3--3--3--3-|---2-------------------------------|
 |--0-------0--0--0---0---0--0--0--0-|---3-------------------------------|
    D       U  D  U   D   D  U  D  U     D (let ring)

   are      the      first      thing    I    be   -lieved     in     And
 |-----------------------------------|----------X---X---X---X----0-0-0-0-|
 |------0----------------------------|----------X---X---X---X----0-0-0-0-|
 |--------0---0-----0-----0--0--0--0-|----------X---X---X---X----0-0-0-0-|
 |--2-------2-------2-----2--2--2--2-|--0-------X---X---X---X----0-0-0-0-|
 |--2---------------3-----3--3--3--3-|--2-------X---X---X---X----0-0-0-0-|
 |--0---------------0-----0--0--0--0-|--3-------X---X---X---X----3-3-2-2-|
    D               D     D  U  D  U    D       D   D   D   D    D U D U

   now     I'm       yours      and     you    are     mine     to   -night
 |-----------------------------------|---------------------------0-0-0-0-|
 |--0----0--0--0--0------------------|---------------------------0-0-0-0-|
 |--0----0--0--0--0------------------|---------------------------0-0-0-0-|
 |--2----2--2--2--2---2-----2---2----|--0-------0---0---0---0----0-0-0-0-|
 |--2----2--2--2--2---3-----3---3----|--2-------2---2---2---2----0-0-0-0-|
 |--0----0--0--0--0---0-----0---0----|--3-------3---3---3---3----3-3-2-2-|
    D    D  U  D  U   D     D   D       D       D   D   D   D    D U D U

 |--0----------------0---0---0---0---|---0----------------0---0---0---0--|
 |--0----------------0---0---0---0---|---0----------------0---0---0---0--|
 |--0----------------0---0---0---0---|---0----------------0---0---0---0--|
 |--2----------------2---2---2---2---|---0----------------0---0---0---0--|
 |--2----------------2---2---2---2---|---2----------------2---2---2---2--|
 |--0----------------0---0---0---0---|---3----------------3---3---3---3--|
    D                D   U   D   U       D                D   U   D   U

                                                                      My  
 |--0--------0---------0---------0---|---0--------0--------0---0---X---X-|
 |--3--------3---------3---------3---|---3--------3--------3---3---X---X-|
 |--0--------0---------0---------0---|---0--------0--------0---0---X---X-|
 |--4--------4---------4---------4---|---4--------4--------4---4---X---X-|
 |--5--------5---------5---------5---|---5--------5--------5---5---X---X-|
 |--0--------0---------0---------0---|---0--------0--------0---0---X---X-|
    D        D         D         D       D        D        D   U   D   U

   heart    is      yours   it's       clean    and     heal    -ing   you've
 |--0-0-0-0-0-0-0-0-0-0-0-0-0-0-0-0--|--0-0-0-0-0-0-0-0-0-0-0-0-0-0-0-0--|
 |--0-0-0-0-0-0-0-0-0-0-0-0-0-0-0-0--|--0-0-0-0-0-0-0-0-0-0-0-0-0-0-0-0--|
 |--0-0-0-0-0-0-0-0-0-0-0-0-0-0-0-0--|--0-0-0-0-0-0-0-0-0-0-0-0-0-0-0-0--|
 |--2-2-2-2-2-2-2-2-2-2-2-2-2-2-2-2--|--0-0-0-0-0-0-0-0-0-0-0-0-0-0-0-0--|
 |--2-2-2-2-2-2-2-2-3-3-3-3-3-3-3-3--|--2-2-2-2-2-2-2-2-2-2-2-2-0-0-0-0--|
 |--0-0-0-0-0-0-0-0-0-0-0-0-0-0-0-0--|--3-3-3-3-3-3-3-3-3-3-3-3-2-2-2-2--|
    D D D D D D D D D D D D D D D D     D D D D D D D D D D D D D D D D

  closed    the     wounds  and       stopped   the     bleed   -ing  I'll
 |--0-0-0-0-0-0-0-0-0-0-0-0-0-0-0-0--|--0-0-0-0-0-0-0-0-0-0-0-0-0-0-0-0--|
 |--0-0-0-0-0-0-0-0-0-0-0-0-0-0-0-0--|--0-0-0-0-0-0-0-0-0-0-0-0-0-0-0-0--|
 |--0-0-0-0-0-0-0-0-0-0-0-0-0-0-0-0--|--0-0-0-0-0-0-0-0-0-0-0-0-0-0-0-0--|
 |--2-2-2-2-2-2-2-2-2-2-2-2-2-2-2-2--|--0-0-0-0-0-0-0-0-0-0-0-0-0-0-0-0--|
 |--2-2-2-2-2-2-2-2-3-3-3-3-3-3-3-3--|--2-2-2-2-2-2-2-2-2-2-2-2-0-0-0-0--|
 |--0-0-0-0-0-0-0-0-0-0-0-0-0-0-0-0--|--3-3-3-3-3-3-3-3-3-3-3-3-2-2-2-2--|
    D D D D D D D D D D D D D D D D     D D D D D D D D D U D U D U D U

   give     you     all     I           am      give    you     my    life
 |--0-0-0-0-0-0-0-0-0-0-0-0-0-0-0-0--|--0-0-0-0-0-0-0-0-0-0-0-0-0-0-0-00--|
 |--0-0-0-0-0-0-0-0-0-0-0-0-0-0-0-0--|--0-0-0-0-0-0-0-0-0-0-0-0-0-0-0-00--|
 |--0-0-0-0-0-0-0-0-0-0-0-0-0-0-0-0--|--0-0-0-0-0-0-0-0-0-0-0-0-0-0-0-00--|
 |--2-2-2-2-2-2-2-2-2-2-2-2-2-2-2-2--|--0-0-0-0-0-0-0-0-0-0-0-0-0-0-0-00--|
 |--2-2-2-2-2-2-2-2-3-3-3-3-3-3-3-3--|--2-2-2-2-2-2-2-2-2-2-2-2-0-0-0-00--|
 |--0-0-0-0-0-0-0-0-0-0-0-0-0-0-0-0--|--3-3-3-3-3-3-3-3-3-3-3-3-2-2-2-22--|
    D D D D D D D D D D D D D D D D     D U D U D U D U D U D U D U D DU


                                                                      And
 |--0-0-0-0-0-0-0-0-0-0-0-0-0-0-0-0--|--3-3-3-3-3-3-3-3------------------|
 |--0-0-0-0-0-0-0-0-0-0-0-0-0-0-0-0--|--3-3-3-3-3-3-3-3-3-3-3-3-3-3-3-33-|
 |--0-0-0-0-0-0-0-0-0-0-0-0-0-0-0-0--|--0-0-0-0-0-0-0-0-2-2-2-2-2-2-2-22-|
 |--2-2-2-2-2-2-2-2-2-2-2-2-2-2-2-2--|--0-0-0-0-0-0-0-0-0-0-0-0-0-0-0-00-|
 |--2-2-2-2-2-2-X-2-X-X-3-3-X-X-3-3--|--2-2-2-2-2-2-0-0-0-0-0-0-0-0-0-00-|
 |--0-0-0-0-0-0-X-3-X-X-0-0-X-X-0-0--|--3-3-3-3-3-3-0-0-2-2-2-2-2-2-2-22-|
    D U D U D U D U D U D U D U D U     D U D U D U D U D U D U D U D DU
 
    I         will  never   let you     down                          And
 |--0-0-0-0-0-0-0-0-0-0-0-0-0-0-0-0--|--0-0-0-0-0-0-0-0-0-0-0-0-0-0-0-00--|
 |--0-0-0-0-0-0-0-0-0-0-0-0-0-0-0-0--|--0-0-0-0-0-0-0-0-0-0-0-3-3-3-3-33--|
 |--0-0-0-0-0-0-0-0-0-0-0-0-0-0-0-0--|--0-0-0-0-0-0-0-0-0-0-0-2-2-2-2-22--|
 |--2-2-2-2-2-2-2-2-2-2-2-2-2-2-2-2--|--0-0-0-0-0-0-0-0-0-0-0-0-0-0-0-00--|
 |--2-2-2-2-2-2-2-2-3-3-3-3-3-3-3-3--|--2-2-2-2-2-2-2-2-2-2-2-0-0-0-0-00--|
 |--0-0-0-0-0-0-0-0-0-0-0-0-0-0-0-0--|--3-3-3-3-3-3-3-3-3-3-3-0-2-2-2-22--|
    D U D U D U D U D U D U D U D U     D U D U D U D U D U D U D U D DU

    I          will  never  turn  away                                 And
 |--0-0-0-0-0-0-0-0-0-0-0-0-0-0-0-0--|--3-3-3-3-3-3---3-3-3-3-3-3-3-3-33--|
 |--0-0-0-0-0-0-0-0-0-0-0-0-0-0-0-0--|--3-3-3-3-3-3---3-3-3-3-3-3-3-3-33--|
 |--0-0-0-0-0-0-0-0-0-0-0-0-0-0-0-0--|--0-0-0-0-0-0---0-0-0-0-0-0-0-0-00--|
 |--2-2-2-2-2-2-2-2-2-2-2-2-2-2-2-2--|--0-0-0-0-0-0---0-0-0-0-0-0-0-0-00--|
 |--2-2-2-2-2-2-2-2-3-3-3-3-3-3-3-3--|--2-2-2-2-2-2---2-2-2-2-2-2-2-2-22--|
 |--0-0-0-0-0-0-0-0-0-0-0-0-0-0-0-0--|--3-3-3-3-3-3---3-3-3-3-3-3-3-3-33--|
    D U D U D U D U D U D U D U D U     D U D U D U   U D U D U D U D DU

    I          will  never    be  a-   lone   another   day  'cause you are
 |--0-0-0-0-0-0-0-0-0-0-0-0-0-0-0-00-|--3-3-3-3-3-3-3-3-3-3-3-3-3-3-3-3---|
 |--0-0-0-0-0-0-0-0-0-0-0-0-0-0-0-00-|--3-3-3-3-3-3-3-3-3-3-3-3-3-3-3-3---|
 |--0-0-0-0-0-0-0-0-0-0-0-0-0-0-0-00-|--0-0-0-0-0-0-0-0-0-0-0-0-0-0-0-0---|
 |--2-2-2-2-2-2-2-2-2-2-2-2-2-2-2-22-|--0-0-0-0-0-0-0-0-0-0-0-0-0-0-0-0---|
 |--2-2-2-2-2-2-2-2-3-3-3-3-3-3-3-33-|--2-2-2-2-2-2-2-2-2-2-2-2-2-2-0-0---|
 |--0-0-0-0-0-0-0-0-0-0-0-0-0-0-0-00-|--3-3-3-3-3-3-3-3-3-3-3-3-3-3-2-2---|
    D U D U D U D U D U D U D U D DU    D U D U D U D U D U D U D U D U

   Everything  and    all   I  need    tonight                       You
 |-----------------------------------|-----------------------------------|
 |-----------------------------------|-----------------------------------|
 |-----------------------------------|-----------------------------------|
 |--2------------------2-------------|---0-------------------------------|
 |--2------------------3-------------|---2-------------------------------|
 |--0------------------0-------------|---3-------------------------------|
    D                  D                 D

  have     my       heart    yours     for    the   keep     -ing   You
 |-----------------------------------|-----------------------------------|
 |-----------------------------------|-----------------------------------|
 |---------0-----------------0-------|------------------0-------0--------|
 |--2-----------2--------2-------2---|---------------------0-------------|
 |--2----------------3---------------|---------------2------------0------|
 |-----------------------------------|---3 (let ring) ---------1---------|


   are     the     first   thing        I    be  -lieved   in      And
 |-----------------------------------|------------0----------------------|
 |-----------------------------------|-----------------------------------|
 |---------0------------------0------|-------------------0---------------|
 |-------------2-----------------2---|---------4-------------4-----------|
 |--------2---------2s--3--3---------|------5----------------------------|
 |--0--------------------------------|---0-----------------------5-------|

  now     I'm        yours    and      you     are    mine    tonight
 |-----------------------------------|----------------------0-0-0-0------|
 |-----------------------------------|----------------------0-0-0-0------|
 |---------0------------------0------|---------------0------0-0-0-0------|
 |-------------2-----------2-----0---|------------------0---0-0-0-0------|
 |--------2---------2s--3------------|-------------0--------0-0-0-0------|
 |--0--------------------------------|---3------------------2-2-2-2------|
                                                            D U D U

                                                               My
 |-----------------------------------|-----------------------------------|
 |-----------------------------------|-----------------------------------|
 |---------------------------0-0-0-0-|---0-----0---0---0---0-------------|
 |--------2-2-2-2------------2-2-2-2-|---0-----0---0---0---0--3-3-3-3----|
 |--------2-2-2-2-----3------3-3-3-3-|---2-----2---2---2---2--2-2-2-2----|
 |--0-----0-0-0-0------------0-0-0-0-|---3-----3---3---3---3--3-3-3-3----|
          D U D U            D U D U     D     D   D   D   D  D U D U


  heart     is       yours     it's    clean    and    heal  -ing    You've
 |--0------------------0-------------|---0-------------------------------|
 |--0------------------0-------------|---0-------------------------------|
 |--0------------------0-------------|---0----------------------------0--|
 |--2------------------2-------------|---0----------------------------0--|
 |--2------------------3-------------|---2-------------------------------|
 |--0------------------0-------------|---3--------------------------2----|
    D                  D                 D 

  closed    the       wounds   and     stopped    the    bleed -ing    I'll
 |--------0--------------------------|-----------------------------------|
 |------------0------------------0---|-----------------------------------|
 |-----------------------------------|---0-----0---0---0---0--0-0-0-0----|
 |--2------------------2-----2-------|---0-----0---0---0---0--0-0-0-0----|
 |--2------------------3-------------|---2-----2---2---2---2--0-0-0-0----|
 |--0------------------0-------------|---3-----3---3---3---3--3-3-2-2----|
    D                  D                 D     D   D   D   D  D U D U

  give   you         all      I         am     give     you     my     life
 |------0----------------------3-----|----------3--------5---------------|
 |----------0----------------------0-|-------------3--------3------------|
 |--------------0--------------------|----------------0--------0---------|
 |--2----------------------2---------|-----------------------------------|
 |--2------------------3-------------|------2----------------------------|
 |-----------------------------------|---3-------------------------------|


 |-----------------------------------|---------------0-------------------|
 |-----------------------------------|-------------------3---------------|
 |------0--------------0-------------|-----------0------------0-------0--|
 |---------0--------2----2-----------|-------4--------------------4------|
 |-----2--------3--------------------|---5-------------------------------|
 |--0--------------------------------|-----------------------------------|


 |-----------------------------------|---------------0-------------------|
 |-----------------------------------|-------------------3---------------|
 |-------0---------------0-----------|-----------0------------0-------0--|
 |---------2----------2-----2--------|-------4--------------------4------|
 |-----2-------2s--3-----------------|---5-------------------------------|
 |--0--------------------------------|-----------------------------------|


 |--3--------------------------------||
 |--3--------------------------------||
 |--0--------------------------------||
 |--0--------------------------------||
 |--2--------------------------------||
 |--3--------------------------------||
    D (let ring)
Добавлено: 27.06.2013
Другие материалы по этой песне:
  • Аккорды и текст

Страница создана 27.06.2013
http://primanota.ru/wayward-daughter/yours-for-the-keeping-chords.htm
Привет, Гость.
Предлагаем пройти революционный курс по гитаре.
Подарок от PrimaNota.Ru, забирай!