PrimaNota.ru - самый крупный в мире бесплатный архив песенных текстов, аккордов, табулатур и нот


Wayward Daughter - You Lost Your Place - таба, видео

Регистрация Запомнить меня
Войти через:  Facebook Google Twitter Vk Yandex Mail.ru

Wayward Daughter - You Lost Your Place - таба, видео

Печатать
Просмотров: 123
This is my first tabs. Hope you like it!


Verses:
E ---0------0------0-------0---0---0-------------------------------|
B ---0------0------0-------0---0---0-------------------------------|
G ---8------0------0-------0---0---8-------------------------------|  (x2) 
D ---9------7------6-------5---7---9-------------------------------|
A ---7------5------4-------3---5---7-------------------------------|  
D -----------------------------------------------------------------|
                                                             
Pre Chorus:
E ---0-------0------0-----------0----------------------------------|
B ---0-------0------0-----------0----------------------------------|
G ---2-------8------0-----------2----------------------------------|
D ---2-------10-----6-----------2----------------------------------|
A ---0-------9------4-----------0----------------------------------|  
D ---0--------------------------0----------------------------------|
And time...

Chorus:
E ---0------0-------0------0---0-----------------------------------|
B ---0------0-------0------0---0-----------------------------------|
G ---8------8-------0------2---2-----------------------------------|
D ---9------10------6------2---2-----------------------------------|
A ---7------9-------4------0---1-----------------------------------|  
D -------------------------0---0-----------------------------------|

Bridge:
E ---2---------4---5----------0--------------0---------------------|
B ---2---------4---5----------0--------------0---------------------|
G ---3---------5---6----------0--------------8---------------------|
D ---4---------6---7----------9--------------10--------------------|
A ---4---------6---7----------7--------------9---------------------|  
D ---2---------4---5-----------------------------------------------|
     Life     goes on     And each... We are growing and aging

E ---2--------4---5--------------0---------------------------------|
B ---2--------4---5--------------1---------------------------------|
G ---3--------5---6--------------2---------------------------------|
D ---4--------6---7--------------2---------------------------------|
A ---4--------6---7--------------0---------------------------------|  
D ---2--------4---5--------------0---------------------------------|
 And I will   get along without you

Chorus(at the end):
E ---0------0-------0-------0---3---0------------------------------|
B ---0------0-------0-------1---1---0------------------------------|
G ---1------8-------0-------2---2---2------------------------------|
D ---2------10------6-------2---2---2------------------------------|
A ---2------9-------4---------------1------------------------------|  
D -----------------------------------------------------------------|
Добавлено: 27.06.2013
Другие материалы по этой песне:
  • Аккорды и текст

Страница создана 27.06.2013
http://primanota.ru/wayward-daughter/you-lost-your-place-chords.htm
Привет, Гость.
Предлагаем пройти революционный курс по гитаре.
Подарок от PrimaNota.Ru, забирай!