PrimaNota.ru - самый крупный в мире бесплатный архив песенных текстов, аккордов, табулатур и нот


Wayne Shorter - El Gaucho - таба, видео

Регистрация Запомнить меня
Войти через:  Facebook Google Twitter Vk Yandex Mail.ru

Wayne Shorter - El Gaucho - таба, видео

Печатать
Просмотров: 44
Авторы музыки: Wayne Shorter

-------------------------------------------------------------------------------
                             El Gaucho - Wayne Shorter
-------------------------------------------------------------------------------
Tuning: Standard

       Fmaj7            Ebmaj7           Dm7      Bb7     B7      E7(#5)
e|----|----------------|----------------|----------------|----------------|
B|----|----------------|----------------|----------------|----------------|
G|----|----------------|----------------|----------------|----------------|
D|5-5-|------5-------5-|------5---------|----------------|--------------6-|
A|----|7---7-----------|8-5-8---------8-|7---7-8---------|------------8---|
E|----|--8-------------|----------------|--8-----8-------|----------------|

  Fm7              Gbmaj7           Fm7              Gbmaj7    Ebmaj7
e|----------------|----------------|----------------|----------------|
B|----------------|----------------|----------------|----------------|
G|----------------|----------------|----------------|----------------|
D|8-----8-------6-|8-6---6-------6-|8-----8-------6-|8-6---6---------|
A|------------8---|----8---8---8---|------------8---|----8---8-------|
E|----------------|----------------|----------------|----------------|

                                    Cm7              Dm7
e|----------------|----------------|----------------|----------------|
B|----------------|----------------|----------------|----------------|
G|----------------|--------------5-|7-----7-------5-|7-5---5-------5-|
D|----------------|------------7---|------------7---|----7---7---7---|
A|----------------|----------------|----------------|----------------|
E|----------------|----------------|----------------|----------------|

  Cm7              Dm7     Em7
e|----------------|----------------|----------------|----------------|
B|----------------|----------------|----------------|----------------|
G|7-----7-------5-|7-5---5---------|----------------|----------------|
D|------------7---|----7---7-------|----------------|----------------|
A|----------------|----------------|----------------|----------------|
E|----------------|----------------|----------------|----------------|

e|----------------|----------------|
B|----------------|----------------|
G|----------------|----------------|
D|----------------|----------------|
A|----------------|----------------|
E|----------------|----------------|
Добавлено: 19.11.2015
Другие материалы по этой песне:
  • Аккорды и текст

Страница создана 19.11.2015
http://primanota.ru/wayne-shorter/el-gaucho-chords.htm
Привет, Гость.
Предлагаем пройти революционный курс по гитаре.
Подарок от PrimaNota.Ru, забирай!