PrimaNota.ru - самый крупный в мире бесплатный архив песенных текстов, аккордов, табулатур и нот


Wayne Shorter - 502 Blues Drinkin And Drivin - таба, видео

Регистрация Запомнить меня
Войти через:  Facebook Google Twitter Vk Yandex Mail.ru

Wayne Shorter - 502 Blues Drinkin And Drivin - таба, видео

Печатать
Просмотров: 101
Авторы музыки: Jimmy Rowles

-------------------------------------------------------------------------------
          502 Blues (Drinkin' and Drivin') - Wayne Shorter
-------------------------------------------------------------------------------
Tabbed by: Jimmy Rowles
Tuning: Standard
Time Signature: 3/4

      Am7          Db maj7(#5)    Bm7(b5)        E7(b9)
e|---|------------|--------------|--------------|--------------|
B|---|------------|--------------|--------------|--------------|
G|---|------------|--------------|--------------|--------------|
D|---|-7-------9-7|-10--------9-7|--------------|--------------|
A|-7-|------------|--------------|-10-7---------|------------7-|
E|---|------------|--------------|--------------|--------------|

      Am7          Db maj7(#5)    Bm7(b5)        E7(b9)
e|--------------|--------------|--------------|--------------|
B|--------------|--------------|--------------|--------------|
G|--------------|--------------|--------------|--------------|
D|-7---------9-7|-10--------9-7|--------------|--------------|
A|--------------|--------------|-10-7---------|-----------10-|
E|--------------|--------------|--------------|--------------|

  Cm7            F7             Bbmaj7  Am7    Abm7    Db7
e|--------------|--------------|--------------|--------------|
B|--------------|--------------|--------------|--------------|
G|--------------|--------------|--------------|--------------|
D|-10------12-10|-13------12---|----10--------|-11-----------|
A|--------------|--------------|13----13-12-13|---------13---|
E|--------------|------------13|--------------|------11------|

 
 |--First-ending---------------------------------------------|
 |                                                           |
 |F#m7(b5)       B7(b9)         Emaj7                 E7(#5) |
e|--------------|--------------|--------------|--------------|
B|--------------|--------------|--------------|--------------|
G|--------------|--------------|-8------------|----------7---|
D|9--------10---|-----------10-|--------------|------------10|
A|-12-11-12-----|-------11-----|--------------|--------------|
E|--------------|---11---------|--------------|--------------|

 |--Second-ending--------------------------------------------|
 |
 |F#m7(b5)       B7(b9)         Em7
e|--------------|--------------|--------------|--------------|
B|--------------|--------------|--------------|--------------|
G|--------------|13------------|--------------|--------------|
D|9--------10-13|----10--13----|--------------|--------------|
A|-12-11-12-----|------------11|-10-----------|--------------|
E|--------------|--------------|--------------|--------------|




Добавлено: 30.07.2015
Вам также может быть интересно:
Другие материалы по этой песне:
  • Аккорды и текст

Страница создана 30.07.2015
http://primanota.ru/wayne-shorter/502-blues-drinkin-and-drivin-chords.htm
Привет, Гость.
Предлагаем пройти революционный курс по гитаре.
Подарок от PrimaNota.Ru, забирай!