PrimaNota.ru - самый крупный в мире бесплатный архив песенных текстов, аккордов, табулатур и нот


Wayfarer - Ragnorok - бас-таба, видео

Регистрация Запомнить меня
Войти через:  Facebook Google Twitter Vk Yandex Mail.ru

Wayfarer - Ragnorok - бас-таба, видео

Печатать
Просмотров: 72
http://www.facebook.com/pages/Wayfarer/157674134258637

G|-------------------------------------|    
D|-------------------------------------|              
A|-------------------------------------|
D|-0--------0--------0--------0--------|

G|----------------------------------|    
D|----------------------------------|              
A|----------------------------------|
D|-0----0-0-0-0-0-0-0-0-0-0-0-0-0-0-|

G|-------------------------------------------------------------------|    
D|-------------------------------------------------------------------|              
A|-5-5-5-4-4-4-8-8-8-8-8-8-8-8-4-4-4-5-------5-------5---5-----5---5-|
D|-------------------------------------0-0-0---0-0-0---0---0-0---0---|

G|-------------------------------------------------------------------|    
D|-------------------------------------------------------------------|              
A|-5-5-5-4-4-4-8-8-8-8-8-8-8-8-4-4-4-5-------5-------6---5-----5-6-9-| 
D|-------------------------------------0-0-0---0-0-0---0---0-0-------|

G|-------------------------------------------------------------------|    
D|-------------------------------------------------------------------|              
A|-5-5-5-4-4-4-8-8-8-8-8-8-8-8-4-4-4-5-------5-------5---5-----5---5-|
D|-------------------------------------0-0-0---0-0-0---0---0-0---0---|

G|-------------------------------------------------------------------|    
D|-------------------------------------------------------------------|              
A|-5-5-5-4-4-4-8-8-8-8-8-8-8-8-4-4-4-5-------5-------6---5-----5-6-9-| 
D|-------------------------------------0-0-0---0-0-0---0---0-0-------|

G|----------------------------------------|    
D|----------------------------------------|              
A|----------------------------------------|
D|-0--------------------------------------|

G|-----------------------|    
D|-------------------4-4-|              
A|-4-5---------5-6-5-----| x3
D|-----0-0-0-0-----------|

G|-------------------|    
D|-----------4-----4-|              
A|-4-5---------5-4---|
D|-----0-0-0---------|

G|---------------------------|    
D|---------------------------|              
A|-5-------7-6-5-7-8-8-7-8-8-| x3
D|---0-0-0-------------------|

G|----------------------|    
D|----------------------|              
A|-5-------7-6-5-7-8-8--| 
D|---0-0-0--------------|

W A T C H    T H E     T I M I N G

G|-------------------------------------------------|    
D|-------------8-8-8-8-8-8-------------------------|              
A|-9-9-9-9-9-9-------------------------------------|
D|-------------------------0-0-0-0-0-0-0-0-0-0-0-0-|

G|-------------------------------------------------|    
D|-------------8-8-8-8-8-8-------------------8-8-8-|              
A|-9-9-9-9-9-9-------------9-9-9-9-9-9-8-8-8-------|
D|-------------------------------------------------|

G|-------------------------------------------------|    
D|-------------8-8-8-8-8-8-------------------------|              
A|-9-9-9-9-9-9-------------------------------------|
D|-------------------------0-0-0-0-0-0-0-0-0-0-0-0-|

G|-------------------------|    
D|-------------8-8-8-8-8-8-|              
A|-9-9-9-9-9-9-------------|
D|-------------------------|

G|----------------------------------------|    
D|----------------------------------------|              
A|----------------------------------------|
D|-0--------------------------------------| 

G|----------------------------------------|    
D|----------------------------------------|              
A|-5--------------------------------------|
D|---0-0-0-0-0-0-0-0-0-0-0-0-0-0-0--------|

G|----------------------------------------|    
D|----------------------------------------|              
A|----------------------------------------|
D|-0--------------------------------------|

G|----------------------------------------|    
D|----------------------------------------|              
A|-5--------------------------------------|
D|---0-0-0-0-0-0-0-0-0-0-0-0-0-0-0--------|

G|-----------------------------------------------------------------|    
D|-----------------------------------------------------------------|              
A|-5-5-5-4-4-4-1-1-1-4-4-4-4-4-4-4-5-------5-------5---5-----5-4-1-| x4
D|-----------------------------------0-0-0---0-0-0---0---0-0-------|

G|-----------------------------------------------------------------|    
D|-------4-4-4-----------------------------------------------------|              
A|-5-5-5-------4-4-4-1-1-1-1-1-1-1-5-------5-------5---5-----5-4-1-|
D|-----------------------------------0-0-0---0-0-0---0---0-0-------|

G|-----------------------------------------------------------------|    
D|-----------------------------------------------------------------|              
A|-5-5-5-4-4-4-8-8-8-7-7-7-7-7-7-7-5-------5-------5---5-----9-8-5-|
D|-----------------------------------0-0-0---0-0-0---0---0-0-------|

END
Добавлено: 19.07.2013
Другие материалы по этой песне:
  • Аккорды и текст

Страница создана 19.07.2013
http://primanota.ru/wayfarer/ragnorok-chords.htm
Привет, Гость.
Предлагаем пройти революционный курс по гитаре.
Подарок от PrimaNota.Ru, забирай!