PrimaNota.ru - самый крупный в мире бесплатный архив песенных текстов, аккордов, табулатур и нот


Wayfarer - Lament Of The Last - бас-таба, видео

Регистрация Запомнить меня
Войти через:  Facebook Google Twitter Vk Yandex Mail.ru

Wayfarer - Lament Of The Last - бас-таба, видео

Печатать
Просмотров: 96
Уроки эстрадного вокала в Санкт-Петербурге
http://www.facebook.com/pages/Wayfarer/157674134258637

WAYFARER - LAMENT OF THE LAST
 
G|-3-3-3-3-3-3-3-3-5-5-5-5-5-5-5-5-2-2-2-2-2-2-2-2-2-2-2-2-2-2-2-|    
D|---------------------------------------------------------------|              
A|---------------------------------------------------------------| x4
D|---------------------------------------------------------------|

G|---------------------------------0-2-2-2-2-2-2-2-2-2-2-3-3-3-3-|    
D|---------------------------------------------------------------|              
A|---------------------------------------------------------------| x2
D|-5-5-5-5-5-5-5-5-3-3-3-3-3-3-3-3-------------------------------|

G|-3-3-3-3-3-3-3-3-5-5-5-5-5-5-5-5-0-2-2-2-2-2-2-2-2-2-2-2-2-2-2-|    
D|---------------------------------------------------------------|              
A|---------------------------------------------------------------| x4
D|---------------------------------------------------------------|

G|---------------------------------0-2-2-2-2-2-2-2-2-2-2-3-3-3-3-|    
D|---------------------------------------------------------------|              
A|---------------------------------------------------------------| x2
D|-5-5-5-5-5-5-5-5-3-3-3-3-3-3-3-3-------------------------------|

G|-3-3-3-3-3-3-3-3-5-5-5-5-5-5-5-5-2-2-2-2-2-2-2-2-2-2-2-2-2-2-2-|    
D|---------------------------------------------------------------|              
A|---------------------------------------------------------------| x2
D|---------------------------------------------------------------|

G|---------------------------------0-2-2-2-2-2-2-2-2-2-2-3-3-3-3-|    
D|---------------------------------------------------------------|              
A|---------------------------------------------------------------| x2
D|-5-5-5-5-5-5-5-5-3-3-3-3-3-3-3-3-------------------------------|

-----------------------------------------------------------------

G|--------------------------------------------------------------|    
D|-8-7-5-8-7-5-8-7-5-8-7-5-8-7-5-7--10-8-7-10-8-7-10-8-7-10-8-7-|              
A|--------------------------------------------------------------|
D|--------------------------------------------------------------|

G|---------------------------------------------------------|    
D|-8-7-5-8-7-5-8-7-5-8-7-5---------------------------------|              
A|---------------------------------------------------------|
D|-------------------------4-4-4-4-4-4-4-4-1-1-1-1-1-1-1-1-|

play section x4
-----------------------------------------------------------------

G|----------------------------------------|    
D|----------------------------------------|              
A|----------------------------------------| x4
D|-3----------0---------------------------|


G|---------------------------------------------------------------|    
D|---------------------------------------------------------------|              
A|---------------------------------------------------------------| 
D|-0-------------------------------------------------------------|

END
Добавлено: 15.06.2013
Другие материалы по этой песне:
  • Аккорды и текст

Страница создана 15.06.2013
http://primanota.ru/wayfarer/lament-of-the-last-chords.htm
Привет, Гость.
Предлагаем пройти революционный курс по гитаре.
Подарок от PrimaNota.Ru, забирай!