PrimaNota.ru - самый крупный в мире бесплатный архив песенных текстов, аккордов, табулатур и нот


Wayfarer - Fimbulvetr - бас-таба, видео

Регистрация Запомнить меня
Войти через:  Facebook Google Twitter Vk Yandex Mail.ru

Wayfarer - Fimbulvetr - бас-таба, видео

Печатать
Просмотров: 99
http://www.facebook.com/pages/Wayfarer/157674134258637

WAYFARER - FIMBULVETR

G|---------------------------------|    
D|---------------------------------|              
A|---------------------------------|
D|-0-------------------------------|

G|-----------------------------------------------|    
D|-----------------------------------------------|              
A|-------------7--5-6-5----------5---------------|
D|-0----0-0-7-----------0-0-0-0----0-0-0-0-0-0-0-|

G|-----------------------------------------------|    
D|-----------------------------------------------|              
A|----------------6-5------------5---------------|
D|-0----0-0-7--2--------0-0-0-0----0-0-0-0-0-0-0-|

G|-----------------------------------------------|    
D|-----------------------------------------------|              
A|-------------7--5-6-5----------5---------------|
D|-0----0-0-7-----------0-0-0-0----0-0-0-0-0-0-0-|

G|-----------------------------------------------|    
D|-----------------------------------------------|              
A|----------------6-5------------5---------------|
D|-0----0-0-7--2--------0-0-0-0----0-0-0-0-0-0-0-|

G|-----------------------------------------------|    
D|-----------------------------------------------|              
A|-------------7--5-6-5----------5---------------|
D|-0----0-0-7-----------0-0-0-0----0-0-0-0-0-0-0-|

G|-----------------------------------------------|    
D|-----------------------------------------------|              
A|----------------6-5------------5---------------|
D|-0----0-0-7--2--------0-0-0-0----0-0-0-0-0-0-0-|

G|-------------------------------------------------------------------|    
D|-------------------------------------------------------------------|              
A|-------------------------------------------------------------------| x6
D|-0-0-0-0-0-000000-0-0-0-0-0-000000-0-0-0-0-0-000000-0-3-3-3--1-1-1-|

G|-----------------------------------------------|    
D|-----------------------------------------------|              
A|-------------7--5-6-5----------5---------------|
D|-0----0-0-7-----------0-0-0-0----0-0-0-0-0-0-0-|

G|-----------------------------------------------|    
D|-----------------------------------------------|              
A|----------------6-5------------5---------------|
D|-0----0-0-7--2--------0-0-0-0----0-0-0-0-0-0-0-|

G|-----------------------------------------------|    
D|-----------------------------------------------|              
A|-------------7--5-6-5----------5---------------|
D|-0----0-0-7-----------0-0-0-0----0-0-0-0-0-0-0-|

G|-----------------------------------------------|    
D|-----------------------------------------------|              
A|----------------6-5------------5---------------|
D|-0----0-0-7--2--------0-0-0-0----0-0-0-0-0-0-0-|

G|---------------------------------------------------------|    
D|---------------------------------------------------------|              
A|---------6-6-6-6-5-5-5-1-1-4-----------------------------| x4
D|-0-0-0-0---------------------4-4-4-4-4-0-3-3-3-3-3-4-4-3-|

G|---------------------|    
D|---------------------|              
A|---------------------|
D|-0-------------------|

G|---------------------------------3-3-3-3-3-3-3-3-3-3-3-------------|    
D|-5-5-5-5-5-5-5-5-5-5-5-5-5-3-3-3-----------------------3-3-3-3-3-3-|              
A|-------------------------------------------------------------------| x10
D|-------------------------------------------------------------------|


G|---------------------|    
D|-5-------------------|              
A|---------------------|
D|---------------------|
Добавлено: 02.07.2013
Другие материалы по этой песне:
  • Аккорды и текст

Страница создана 02.07.2013
http://primanota.ru/wayfarer/fimbulvetr-chords.htm
Привет, Гость.
Предлагаем пройти революционный курс по гитаре.
Подарок от PrimaNota.Ru, забирай!