PrimaNota.ru - самый крупный в мире бесплатный архив песенных текстов, аккордов, табулатур и нот


Wayfarer - Deor - таба, видео

Регистрация Запомнить меня
Войти через:  Facebook Google Twitter Vk Yandex Mail.ru

Wayfarer - Deor - таба, видео

Печатать
Просмотров: 89
http://www.facebook.com/pages/Wayfarer/157674134258637

WAYFARER - DEOR

GUITAR FOR AGES, PLAY THESE 3 NOTES AT THE END OF 4th TIME

G|----------------------------------------|    
D|----------------------------------------|              
A|-10--9--6-------------------------------|
D|----------------------------------------|

G|-----------------------------------------------------------------|    
D|-8-8-8-8-8-8-8-8-8-8-8-8-8-8-8-8-----------------4-4-4-4-4-4-4-4-|              
A|---------------------------------5-5-5-5-5-5-5-5-----------------| x3
D|-----------------------------------------------------------------|

G|--------------------------------------------|    
D|-8-8-8-8-8-8-8-8-8-8-8-8-8-8-8-8------------|              
A|---------------------------------5---5--5---|
D|--------------------------------------------|

G|---------------------------------|    
D|---------------------------3-3-3-|              
A|-5-------5-----5---5-5-1-1-------|
D|---0-0-0---0-0---0---------------|

G|--------------------------------|    
D|-------------------/8-8-8-------|              
A|-5-------5-----5----------9-8-6-|
D|---0-0-0---0-0---0--------------|

G|---------------------------------|    
D|---------------------------3-3-3-|              
A|-5-------5-----5---5-5-1-1-------|
D|---0-0-0---0-0---0---------------|

G|--------------------------------|    
D|-------------------/8-8-8-------|              
A|-5-------5-----5----------9-8-6-|
D|---0-0-0---0-0---0--------------|

G|---------------------------------|    
D|---------------------------3-3-3-|              
A|-5-------5-----5---5-5-1-1-------|
D|---0-0-0---0-0---0---------------|

G|--------------------------------|    
D|-------------------/8-8-8-------|              
A|-5-------5-----5----------9-8-6-|
D|---0-0-0---0-0---0--------------|

G|---------------------------------|    
D|---------------------------3-3-3-|              
A|-5-------5-----5---5-5-1-1-------|
D|---0-0-0---0-0---0---------------|

G|--------------------------------|    
D|-------------------/8-8-8-------|              
A|-5-------5-----5----------9-8-6-|
D|---0-0-0---0-0---0--------------|

G|----------------|    
D|----------------|              
A|----------------|
D|-0--------------|

G|---------------------------------------------|    
D|---------------------------------------------|              
A|---------------------------------------------|
D|-0-0--------0-0--------0-0--------0-0--------|

G|-------------------------------------------------------------|    
D|-------------------------------------------------------------|              
A|-----------------------7-8---------------------9-9-9-9-6-6-6-| x4
D|-0-0-0-0-0-0-0-0-0-0-0-----0-0-0-0-0-0-0-0-0-0---------------|

G|---------------------------------------|    
D|---------------------------------------|              
A|---------------------------6-6-5-5-5-9-| x2
D|-2-0-0-0-0-----2-0-0-0-0---------------|

G|---------------------------------------|    
D|---------------------------------------|              
A|---------------------------6-6-5-5-5-9-| x2
D|-2-0-0-0-0-0-0-2-0-0-0-0-0-------------|


G|----------------|    
D|----------------|              
A|----------------|
D|-0--------------|

END
Добавлено: 12.11.2013
Вам также может быть интересно:
Другие материалы по этой песне:
  • Аккорды и текст

Страница создана 12.11.2013
http://primanota.ru/wayfarer/deor-chords.htm
Привет, Гость.
Предлагаем пройти революционный курс по гитаре.
Подарок от PrimaNota.Ru, забирай!