PrimaNota.ru - самый крупный в мире бесплатный архив песенных текстов, аккордов, табулатур и нот


Way Out West - Intensify Part 2 - аккорды и текст, видео

Регистрация Запомнить меня
Войти через:  Facebook Google Twitter Vk Yandex Mail.ru

Way Out West - Intensify Part 2 - аккорды и текст, видео

Печатать
Просмотров: 79
Уроки эстрадного вокала в Санкт-Петербурге
Авторы музыки: Ally Kennen, Nick Warren, Jody Wisternoff

Intensify Part 2
Way Out West
Tuning: DADGBe

Synth Strings:

e--0--------5-------------3----5---------
B--------------------3-------------------
G----------------------------------------
D--1--------3--------5---------0---------
A----------------------------------------
D--1--------3--------5---------0---------

Electric Piano:

e--0-----5--17--13----8--10----7----3--5------0-----5---1--------------------------
B------------------------------------------------------------1--3----0-------------
G-------------------------------------------------------------------------0----2---
D--1--------3------------5------------0-------1-------3---------5-----------0------
A----------------------------------------------------------------------------------
D--1--------3------------5------------0-------1-------3---------5-----------0------


Em   F   G   Dm   x6

A7sus4   G6   x2


Em       F       G      Dm
  You're looking for perfection

Em     F        G   Dm
  This leaves me outside

Em   F  G
  All I am

Dm               Em
  All you are to me

F      G    Dm
  Is beauty


Em    F    G   Dm
  Let me inside

Em     F       G   Dm
  Stop wasting time

Em  F    G  Dm
  Intensify

Em  F    G  Dm
  Intensify


A7sus4   G6   x2


Em  F          G       Dm
  I can't bare your rejection

Em   F       G     Dm
  It makes me cold

Em    F      G
  Down to my bones

Dm           Em   F
  Even in my soul

      G       Dm
  I believe in you


Em    F     G    Dm
  I'm not a liar

Em  F        G    Dm
  I speak my mind

Em  F    G  Dm
  Intensify

Em  F    G  Dm
  Intensify

Em  F    G  Dm
  Intensify

Em  F    G  Dm
  Intensify


A7sus4  G6


Em  F         G         Dm
      Will we gonna be OK ?

Em  F         G         Dm
      Will we gonna be alright ?

Em  F         G         Dm
      Will we gonna be OK ?

Em  F          G      Dm
     We'll be alright

Em  F    G  Dm
  Intensify
Добавлено: 13.11.2015
Другие материалы по этой песне:
  • Аккорды и текст

Страница создана 13.11.2015
http://primanota.ru/way-out-west/intensify-part-2-chords.htm
Привет, Гость.
Предлагаем пройти революционный курс по гитаре.
Подарок от PrimaNota.Ru, забирай!