PrimaNota.ru - самый крупный в мире бесплатный архив песенных текстов, аккордов, табулатур и нот


Waxahatchee - Air - таба, видео

Регистрация Запомнить меня
Войти через:  Facebook Google Twitter Vk Yandex Mail.ru

Waxahatchee - Air - таба, видео

Печатать
Просмотров: 108
Авторы: Katie Crutchfield

Waxahatchee - Air
Track 8 from the album Ivy Tripp (Merge Records 2015).

Tabbed by Isaac Murguia, January 2015.
Originally uploaded to Ultimate-Guitar.com
Contact: www.youtube.com/user/Goadiroth

INTRO/VERSE 1:
e|-------------------|
B|-------------------|
G|-------------------|
D|-------------------|
A|-----5--4-2---4----|
E|-5---------------4-| [x6]

PRE-CHORUS 1:
  Guitar 1
e|-------------------|
B|-------------------|
G|-------------------|
D|-------------------|
A|-----5--4-2---4----|
E|-5---------------4-| [x4]
  Guitar 2 (palm mute)
e|---------------------|
B|---------------------|
G|---------------------|
D|---------------------|
A|-7777-7777-7777-7777-|
E|-5555-5555-5555-5555-| [x4]

VERSE 2: repeat PRE-CHORUS 1

CHORUS:
  Keyboard part
        [x2]
e|-----------------|---------------|
B|-----------------|---------------|
G|-11---9----6---4-|-6-------6-----|
D|-12---11---7---6-|-7-------7-----|
A|-----------------|---------------|
E|-----------------|---------------|
  Guitar (i can't hear this guitar too well
          but i think these chords will do just fine)
        [x2]
e|-9----7----4---2-|-4-4-4---4-4-4-|
B|-9----7----5---2-|-5-5-5---5-5-5-|
G|-11---9----6---4-|-6-6-6---6-6-6-|
D|-11---9----6---4-|-6-6-6---6-6-6-|
A|-9----7----4---2-|-4-4-4---4-4-4-|
E|-----------------|---------------|

POST-CHORUS:
  Keyboard part
e|-------------------|-------------------|
B|-------------------|-------------------|
G|-6-----------------|-6-----------------|
D|-7-----------------|-7-----------------|
A|-------------------|-------------------|
E|-------------------|-------------------|
  Guitar 1
e|-------------------|-------------------|
B|-------------------|-------------------|
G|-------------------|-------------------|
D|-------------------|-------------------|
A|-----5--4-2---4----|-----5--4-2---4----|
E|-5---------------4-|-5---------------4-|
  Guitar 2
e|----------------------------------|
B|----------------------------------|
G|---6---6---6---6----6---6---6---6-|
D|-7---7---7---7----7---7---7---7---|
A|----------------------------------|
E|----------------------------------| [x2]

VERSE 3:
  Guitar 1
e|-------------------|-------------------|
B|-------------------|-------------------|
G|-------------------|-------------------|
D|-------------------|-------------------|
A|-----5--4-2---4----|-----5--4-2---4----|
E|-5---------------4-|-5---------------4-| [x2]
  Guitar 2 (play very softly)
e|----------------------------------|
B|----------------------------------|
G|---6---6---6---6----6---6---6---6-|
D|-7---7---7---7----7---7---7---7---|
A|----------------------------------|
E|----------------------------------| [x4]

PRE-CHORUS 2:
  Guitar 1
e|-------------------|
B|-------------------|
G|-------------------|
D|-------------------|
A|-----5--4-2---4----|
E|-5---------------4-| [x4]
  Guitar 2 (palm mute)
e|---------------------|
B|---------------------|
G|---------------------|
D|---------------------|
A|-7777-7777-7777-7777-|
E|-5555-5555-5555-5555-| [x4]
  Guitar 3
e|----------------------------------|
B|----------------------------------|
G|---6---6---6---6----6---6---6---6-|
D|-7---7---7---7----7---7---7---7---|
A|----------------------------------|
E|----------------------------------| [x4]

Repeat CHORUS (guitar doesn't strum last 3 chords)
Repeat POST-CHORUS

OUTRO:
  Keyboard part
e|-------------------|-------------------|
B|-------------------|-------------------|
G|-6-----------------|-6-----------------|
D|-7-----------------|-7-----------------|
A|-------------------|-------------------|
E|-------------------|-------------------|
  Guitar
e|----------------------------------|
B|----------------------------------|
G|---6---6---6---6----6---6---6---6-|
D|-7---7---7---7----7---7---7---7---|
A|----------------------------------|
E|----------------------------------| [x2]

e|---------|
B|---------|
G|---------|
D|-7-------|
A|---------|
E|---------|

End. Please rate! :D
Добавлено: 17.06.2015
Другие материалы по этой песне:
  • Аккорды и текст

Страница создана 17.06.2015
http://primanota.ru/waxahatchee/air-chords.htm
Привет, Гость.
Предлагаем пройти революционный курс по гитаре.
Подарок от PrimaNota.Ru, забирай!