PrimaNota.ru - самый крупный в мире бесплатный архив песенных текстов, аккордов, табулатур и нот


Wax Mannequin - You And All Your Friends - таба, видео

Регистрация Запомнить меня
Войти через:  Facebook Google Twitter Vk Yandex Mail.ru

Wax Mannequin - You And All Your Friends - таба, видео

Печатать
Просмотров: 75
-----------------------------------------------------------------------------------
                   YOU AND ALL YOUR FRIENDS - Wax Mannequin
-----------------------------------------------------------------------------------
Tabbed by:Corbe
E-mail:vhabyeryemyennahyah_corbe@hotmail.com

Tuning:Half-step down 

eb|------------------------|
bb|------------------------|
gb|---2--0-----------------|
db|---------------3--2-----|
ab|3--------2--0-----------|
Eb|------------------------|

eb|------|------|------|------|------|------|------|------|
bb|--1-1-|--1-1-|--1-1-|--1-0-|--1-1-|--1-1-|--1-1-|--1-0-|
gb|---2-2|---2-2|---2-2|---2--|---2-2|---2-2|---2-2|---2--|
db|------|------|------|------|------|3-----|2-----|------|
ab|3-----|0-----|------|2-----|0-----|------|------|------|
Eb|------|------|3-----|------|------|------|------|0-----|


Brand new person rise up from the ash you're a baby bird 
who's fine hat will you wear. 
Age old doctor takes steps to repair this seared flesh 
governing persons legs left to chest 

   Dm            G             C      Bb     E      A
eb|---1--|---1--|---3--|---3--|------|------|------|0-----|
bb|--3---|--3-3-|------|------|--1---|--3---|------|2-20--|
gb|-2----|-2---2|---0--|---0--|--0---|--3---|--1---|2---2-|
db|0-----|0-----|--0---|--0---|-2----|-3----|--2---|2----2|
ab|------|------|-2----|-2----|3-----|1-----|-2----|0-----|
Eb|------|------|3-----|3-----|------|------|0-----|------|
  |                                                       |
eb|------|------|------|------|0-----|------|0-----|0-----|
bb|------|------|------|1--3--|------|3-----|---0--|------|
gb|------|------|------|------|------|---3--|------|------|
db|------|------|------|------|------|------|------|------|
ab|------|------|------|------|------|------|------|------|
Eb|------|------|------|------|------|------|------|------|

yes in deed

brand new person pick worms from an apple 
eat burn the sex save the grass
age old doctor draw hearts erase each X 
they appear in the eyes of the youth 
no no  no 

Bb             F      C      Bb              F            C           
how did you know thee daily noose was out to kill you and all your 
Bb                F         C         Bb                      F          C     
friends how do we hide what things we learned while watching such things behind 
    Bb   Bb          A                      Dm                      
the maze how will we keep ill thoughts from screaming there with 
Bb     C           
buildings with flames

brand new person imagine the rest of the age 
and the bread that awaits
age old doctor remember the wreck that we made 
after everyone found and proclaimed 
lye lye lye lye lye lye lye lye

Bb          F         C     Bb               F             C          
how did you know thee daily noose was out to kill you kill all your 
Bb                F         C         Bb                     F           C
friends how do we hide what things we learned while watching what things behind the 
Bb   Bb          A                      Dm                   Bb    C     Dm              
maze how will we keep ill thoughts from screaming there with la la la la la 
Bb      C     F
mmm mmm mm mm mmm

************************************

| /   slide up
| \   slide down
| h   hammer-on
| p   pull-off
| ~   vibrato
| +   harmonic
| x   Mute note
| b   Bend
| pb  Pre-bend
| br  Bend release
| pbr Pre-bend release
| brb Bend release bend

************************************
Добавлено: 26.06.2015
Вам также может быть интересно:
Другие материалы по этой песне:
  • Аккорды и текст

Страница создана 26.06.2015
http://primanota.ru/wax-mannequin/you-and-all-your-friends-chords.htm
Привет, Гость.
Предлагаем пройти революционный курс по гитаре.
Подарок от PrimaNota.Ru, забирай!