PrimaNota.ru - самый крупный в мире бесплатный архив песенных текстов, аккордов, табулатур и нот


Wax Mannequin - Price Paid - таба, видео

Регистрация Запомнить меня
Войти через:  Facebook Google Twitter Vk Yandex Mail.ru

Wax Mannequin - Price Paid - таба, видео

Печатать
Просмотров: 96
-------------------------------------------------------------------------------
                             PRICE PAID - Wax Mannequin
-------------------------------------------------------------------------------
Tabbed by:Corbe
E-mail:vhabyeryemyennahyah_corbe@hotmail.com

Tuning:Half-step down 

  Verse
eb|----------------|---------------|----------------|----------------|--------|
Bb|----------------|---------------|----------------|----------------|--------|
Gb|----------------|---------------|----------------|----------------|----7---|
Db|9---x---79--x-11|9---x-x-79---12|11--xx--79----11|7-------7-9-----|5---7-7-|
Ab|7---x---57--x-9-|7---x-x-57-x-10|9---xx--57--x-9-|5---x---5-7-9-7-|5---5-7-|
Eb|----------------|---------------|----------------|------------7-5-|3-x---5-|
  |                                                                           |
eb|----------------|---------------|----------------|----------------|--------|
Bb|----------------|---------------|----------------|----------------|--------|
Gb|9---------------|9--------------|--------9-------|9---------------|----7---|
Db|9-------2-------|9-------2------|2-------9-------|9-------2-------|5---7-7-|
Ab|7-------2-------|7-------2------|2-------7-------|7-------2-------|5---5-7-|
Eb|--------0-------|--------0------|0---------------|--------0-------|3-----5-|

eb|----------------|
Bb|----------------|
Gb|9------------7--|
Db|9-------9----7--|
Ab|7---xx--9----5--|
Eb|--------7-------|
  |                |
eb|----------------|
Bb|----------------|
Gb|----------------|
Db|--------------57|
Ab|2-2-2-2-2---5---|
Eb|0-0-0-0---3---5-|

 Chorus
   Em               G                Asus2            A
eb|------00------00|------33------33|------00------00|------00------00|
Bb|------00------00|------00------00|------00------00|------22------22|
Gb|----0-00----0-00|----0-------0---|--2-2-22--2-2-22|--2-2-22--2-2-22|
Db|--2-2-----2-2---|--0-0-----0-0---|--2-2-----2-2---|--2-2-----2-2---|
Ab|2-2-2---2-2-2---|2-2-2---2-2-2---|0-0-0---0-0-0---|0-0-0---0-0-0---|
Eb|0-x-0---0-x-0---|3-x-3---3-x-3---|0-x-0---0-x-0---|0-x-0---0-x-0---|
  |                                                                   |
eb|----------------|----------------|----------------|----------------|
Bb|----------------|----------------|----------------|----------------|
Gb|----------------|----------------|----------------|----------------|
Db|----------------|----------------|7-7-7-7-7-7-7-7-|----------------|
Ab|2-2-2-2-2-2-2-2-|5-5-5-5-5-5-5-5-|5-5-5-5-5-5-5-5-|6-6-----6-6-----|
Eb|0-0-0-0-0-0-0-0-|3-3-3-3-3-3-3-3-|----------------|----7-7-----7-7-|
  |                                                                   |
Gb|----------------|----------------|----------------|----------------|
Db|----------------|----------------|----------------|----------------|
Ab|2222222222222222|----------------|----------------|4444----4444----|
Eb|----------------|3333333333333333|5555555555555555|----5555----5555|



keyboard
(I spent too long working on this listening to the different Eqs, 
I know for a fact this is not right but it is close and it works 
if you play without the music. the last bar is an alternate ending to the progression)

eb|----------------|----------------|----------------|----------------|
Bb|----------------|---------------5|7---5-----------|7---------------|
Gb|4-------------46|7-4-6--4------7-|--7---67-4-6-446|6---4-----------|
Db|--5-7-45---4----|------7--5-7-5--|----------------|--7---67-4-6-457|
Ab|---------7---7--|----------------|----------------|----------------|
Eb|----------------|----------------|----------------|----------------|

eb|----------------|
Bb|7---5-----------|
Gb|--7---67-4-6----|
Db|-------------557|
Ab|----------------|
Eb|----------------|

Lyrics:

price paid in full 
the lady was right 
who took less tonight 
the greedy was right 
god damn the preacher man he missed the point 
you got that feeling all for nothing

price paid in full

price paid in full 
the people are cracked 
their fences are meek 
the people are cracked
what was the only thing you didn't keep 
but there's a flame inside the engine

price paid in full

************************************

| /   slide up
| \   slide down
| h   hammer-on
| p   pull-off
| ~   vibrato
| +   harmonic
| x   Mute note
| b   Bend
| pb  Pre-bend
| br  Bend release
| pbr Pre-bend release
| brb Bend release bend

************************************
Добавлено: 26.06.2015
Другие материалы по этой песне:
  • Аккорды и текст

Страница создана 26.06.2015
http://primanota.ru/wax-mannequin/price-paid-chords.htm
Привет, Гость.
Предлагаем пройти революционный курс по гитаре.
Подарок от PrimaNota.Ru, забирай!