PrimaNota.ru - самый крупный в мире бесплатный архив песенных текстов, аккордов, табулатур и нот


Waterstrider - Midnight Moon - таба, видео

Регистрация Запомнить меня
Войти через:  Facebook Google Twitter Vk Yandex Mail.ru

Waterstrider - Midnight Moon - таба, видео

Печатать
Просмотров: 55
Midnight Moon by Waterstrider:


Intro:


Guitar One:

e|-------------------------------|
e|---3----3--5--7----0---0--3--2-|
G|-------------------------------|
D|-------------------------------|
A|---2----2--4--5-----------2--0-|
E|-------------------3---3-------| x6

Guitar Two (Starts playing after the 4th repeat of Guitar One:

e|--2-2-0----------------------------     e|--2-2-0--------|
B|-------3-2-2-0-0----0-0-2-2-3-3-2-0     B|-------3-2-2-0-|
G|------------------2----------------     G|---------------|
D|-----------------------------------     D|---------------|
A|-----------------------------------     A|---------------|
E|----------------------------------- x3  E|---------------|


Bridge:


Bass (arranged for guitar)

e|-------------------------|
B|-------------------------|
G|-------------------------|
D|-------------------------|
A|--2---2-4-5---------2-0--|
E|--------------3---3------| x2


Chorus:


Guitar One

e|-------------------------------|
e|---3----3--5--7----0---0--3--2-|
G|-------------------------------|
D|-------------------------------|
A|---2----2--4--5-----------2--0-|
E|-------------------3---3-------| x2

Bridge Two:

e|----------------|
B|--3---2---7---0-|
G|----------------|
D|----------------|
A|--2---0---5-----|
E|--------------3-| x2
Добавлено: 16.12.2015
Другие материалы по этой песне:
  • Аккорды и текст

Страница создана 16.12.2015
http://primanota.ru/waterstrider/midnight-moon-chords.htm
Привет, Гость.
Предлагаем пройти революционный курс по гитаре.
Подарок от PrimaNota.Ru, забирай!