PrimaNota.ru - самый крупный в мире бесплатный архив песенных текстов, аккордов, табулатур и нот


Waters - Got To My Head - таба, видео

Регистрация Запомнить меня
Войти через:  Facebook Google Twitter Vk Yandex Mail.ru

Waters - Got To My Head - таба, видео

Печатать
Просмотров: 76
maybe not exactly the song but i think it sounds good... :) hope u like it.
(this is my first tab so...)


Intro Riff

e|----------------------------------------------------------|
B|----------------------------------------------------------|
G|----------------------------------------------------------|
D|--------5-------------5-------------5---------------------|
A|6x-6x-6x--6---6x-6x-6x--6---6x-6x-6x--6---6x-6x-6x-5-6----|
E|----------------------------------------------------------|x2


Verse

e|----------------------------------------------------------|
B|----------------------------------------------------------|
G|--------------------------------------------------------..|
D|--------5-------------5-------------5---------------------|
A|6x-6x-6x--6---6x-6x-6x--6---6x-6x-6x--6---6x-6x-6x-5-6----|
E|----------------------------------------------------------|x8


Chorus

e|-------------------------------------|
B|-------------------------------------|
G|-------------------------------------|
D|--10----13----8----6-----------------|
A|--10----13----8----6-----------------|
E|-8----11-----6----4------------------|x6


e|--------------------------------------------------------------|
B|--------------------------------------------------------------|
G|--------------------------------------------------------------|
D|---17-17-17-17-17-17-17-17-17-17-17-17-17\18-18-18-18-18------|
A|--------------------------------------------------------------|
E|--------------------------------------------------------------|x2

e|--------------------------------------------------------------|
B|--------------------------------------------------------------|
G|--------------------------------------------------------------|
D|---17-17-17-15-15-15-13-13-13-18-18-18-15-17------------------|
A|--------------------------------------------------------------|
E|--------------------------------------------------------------|
Добавлено: 16.06.2016
Другие материалы по этой песне:
  • Аккорды и текст

Страница создана 16.06.2016
http://primanota.ru/waters/got-to-my-head-chords.htm
Привет, Гость.
Предлагаем пройти революционный курс по гитаре.
Подарок от PrimaNota.Ru, забирай!