PrimaNota.ru - самый крупный в мире бесплатный архив песенных текстов, аккордов, табулатур и нот


Waterparks - They All Float - таба, видео

Регистрация Запомнить меня
Войти через:  Facebook Google Twitter Vk Yandex Mail.ru

Waterparks - They All Float - таба, видео

Печатать
Просмотров: 110
----------------------------------------------------------------
                             They All Float - WATERPARKS
----------------------------------------------------------------
Tabbed by: scopies
Email: scopies@me.com

Just the lead part, not perfect but neither are you

Tuning: Drop D

Riffy Deal
e|-----------------------------------------------|
B|-----------------------------------------------|
G|----xx7----------------------------------------| x3
D|--------11--9999-------------------------------|
A|---------------------9h10/12/10----------------|
D|-/9--------------------------------------------|

e|-----------------------------------------|
B|-----------------------------------------|
G|----xx7----------------------------------|
D|---------11-------------------9----------|
A|--------------0h5h7p7-9p7----------------|
D|--9--------------------------------------|

Pre-Chorus
e|-------------------------------------------------|
B|--12------------------------14-------------------|
G|-------11------------------------11--------------| x2
D|-------------------------------------------------|
A|-------------------------------------------------|
D|-------------------------------------------------|

Chorus
e|----------------------------------------------------------------|
B|----------------------------------------------------------------|
G|-11/14-11--11-11/14-11--9h11-9h11/14-11--9h11/14-11-9h11-9-9----|
D|----------------------------------------------------------------|
A|----------------------------------------------------------------|
D|----------------------------------------------------------------|

e|-------------------|
B|--------10---14----|
G|-6-7---------------|
D|-------------------|
A|-------------------|
E|-------------------|



Verse 1
e|----------------------------------------------|
B|----------------------------------------------|
G|----------------------------------------------|
D|------------77---------------77----77---------|
A|---------99---99-77------------99----77-------|
D|--9x12---------------9x12---------------------|

e|------------------------------------------------------------|
B|------------------------------------------------------------|
G|------------------------------------------------------------|
D|--9-------7-------5--------9-------4-------5-------8--------|
A|--9-x8----7-x8----5-x16----9-x8----4-x8----5-x8----8-x8-----|
D|--9-------7-------5--------9-------4-------5-------8--------|

e|--------------------------------------------------------|
B|--------------------------------------------------------|
G|----xx7---------------------------------xx7-------------|   
D|--------11--9999----------------------------11--9999----|
A|---------------------9h10/12/10-------------------------|
D|-/9-----------------------------------9-----------------|

Pre-Chorus
e|-------------------------------------------------|
B|--12------------------------14-------------------|
G|-------11------------------------11--------------| x2
D|-------------------------------------------------|
A|-------------------------------------------------|
D|-------------------------------------------------|

Chorus
e|----------------------------------------------------------------|
B|----------------------------------------------------------------|
G|-11/14-11--11-11/14-11--9h11-9h11/14-11--9h11/14-11-9h11-9-9----|
D|----------------------------------------------------------------|
A|----------------------------------------------------------------|
D|----------------------------------------------------------------|

e|-------------------|
B|--------10---14----|
G|-6-7---------------|
D|-------------------|
A|-------------------|
D|-------------------|

e|--------------------------------------------------------|
B|--------------------------------------------------------|
G|----xx7---------------------------------xx7-------------|   
D|--------11--9999----------------------------11--9999----|
A|---------------------9h10/12/10-------------------------|
D|-/9-----------------------------------9-----------------|

Verse 2
e|-----------------------------------------------|
B|-----------------------------------------------|
G|----xx7----------------------------------------| x2
D|--------11--9999-------------------------------|
A|---------------------9h10/12/10----------------|
D|--9--------------------------------------------|

e|---------------------------------------------------------|
B|---------------------------------------------------------|
G|-------xx7--------------------------------/7-6-----/9-7--|   
D|-----------11--9999--------------------------------------|
A|------------------------9h10/12/10-----------------------|
D|--7-------------------------------------5---------7------|

e|---------------------------------------------------------------|
B|----xx8-7---------xx8-7----------xx8-7-------------------------|
G|---------999977--------99991111-------99991111--/7-6---/9-7----|
D|---------------------------------------------------------------|
A|---------------------------------------------------------------|
D|--9-------------7--------------5--------------5------7---------|

e|---------------------------------|
B|---------------------------------|
G|---------------------------------|
D|--2---------/5---------0---------| x2
A|--2-x8------/5-x4------0-x16-----|
D|--2---------/5---------0---------|

Pre-Chorus
e|-------------------------------------------------|
B|--12------------------------14-------------------|
G|-------11------------------------11--------------| x2
D|-------------------------------------------------|
A|-------------------------------------------------|
D|-------------------------------------------------|

Chorus
e|----------------------------------------------------------------|
B|----------------------------------------------------------------|
G|-11/14-11--11-11/14-11--9h11-9h11/14-11--9h11/14-11-9h11-9-9----|
D|----------------------------------------------------------------|
A|----------------------------------------------------------------|
D|----------------------------------------------------------------|

e|-------------------|
B|--------10---14----|
G|-6-7---------------|
D|-------------------|
A|-------------------|
D|-------------------|

Synthy-Awesome Part ( May be tabbed poorly but mess around and you'll get it :] )
e|--15-14--------------------------------------------17-14---|
B|--------17-14-15-14--14-12-14-12-15-12-17-14-15-14---------|
G|-----------------------------------------------------------| x8
D|-----------------------------------------------------------|
A|-----------------------------------------------------------|
D|-----------------------------------------------------------|

e|-----------------------------------------------|
B|-----------------------------------------------|
G|----xx7----------------------------------------| x3
D|--------11--9999-------------------------------|
A|---------------------9h10/12/10----------------|
D|-/9--------------------------------------------|

e|----------------|
B|----------------|
G|--xx7-----------|   
D|-----11--9999---|
A|----------------|
D|-9--------------|

Pre-Chorus
e|-------------------------------------------------|
B|--12------------------------14-------------------|
G|-------11------------------------11--------------| x2
D|-------------------------------------------------|
A|-------------------------------------------------|
D|-------------------------------------------------|

Chorus
e|----------------------------------------------------------------|
B|----------------------------------------------------------------|
G|-11/14-11--11-11/14-11--9h11-9h11/14-11--9h11/14-11-9h11-9-9----|
D|----------------------------------------------------------------|
A|----------------------------------------------------------------|
D|----------------------------------------------------------------|

e|-----------------|
B|--------10-------|
G|-6-7-------------|
D|-----------------|
A|-----------------|
D|-----------------|

************************************

| /   slide up
| h   hammer-on
| p   pull-off
| x   Mute note


************************************

http://www.facebook.com/Waterparks
Добавлено: 30.08.2013
Вам также может быть интересно:
Другие материалы по этой песне:
  • Аккорды и текст

Страница создана 30.08.2013
http://primanota.ru/waterparks/they-all-float-chords.htm
Привет, Гость.
Предлагаем пройти революционный курс по гитаре.
Подарок от PrimaNota.Ru, забирай!