PrimaNota.ru - самый крупный в мире бесплатный архив песенных текстов, аккордов, табулатур и нот


Waterdeep - Without You - таба, видео

Регистрация Запомнить меня
Войти через:  Facebook Google Twitter Vk Yandex Mail.ru

Waterdeep - Without You - таба, видео

Печатать
Просмотров: 61
		   "without you"
waterdeep
"old stuff"
don chaffer
1992 hey ruth music
jaafar gassid--bisonpimp@aol.com


capo 4 w/ regular tuning
 
  G          C       D 
EADGBe    EADGBe   EADGBe
320001    x32010   xx0232

it's mostly basic G and C, with a D thrown in on the chorus.  there are 2
little solos that i've been working on... i think i have the first down for
the most part, and alot of the second.  if anyone has the rest of the second
that i don't have, please send it to me.  thanks.

e------------------------------------------------------------
B------------------------------------------------------------
G---5--4--2--0-----0--2--0---------0--2--2--0----2h3h2------0 
D---------------2---------------2-----------------------0h2--
A------------------------------------------------------------
E------------------------------------------------------------


e-------------3-----------------------------------------------
B-------------0-----------------------------------------------
G-------------0----------------------------------------------- 
D-------------0-----------------------------------------------
A---3--2--0---2-----------------------------------------------
E-------------3-----------------------------------------------
         G                         C
vs.1  daddy, i don't know what to do
G                           C
so daddy now i'm looking strait at you
G                               C
i just don't wanna try it on my own again
G                              C
cause i'll just end up all alone again
G                              C
right now, i don't know where to go
G                                 C
and no one can tell me how the wind's gonna blow
G                                 C
i just don't wanna try it on my own again
G                                 C 
cause i'll just end up all alone again
         D                     C
without you, there's nothing to do

chorus
G         C   G              C
without you, there's nothing to
G         C                  G           C
hold on to, cause when i'm lost, i find you
        G                   C
vs. 2  i always feel so far away
G                            C
like walking home would take six days
G                            C
i've tried to wring water out of sand
G                            C
i've gotten off of my knees and tried to stand
         D               C
without you, there's nothing to do

chorus
G        C     G            C
without you, there's nothing to
G           C                   G               C
my life at all, cause when i need you, is when i fall


e------------------0---0---3--3-5-3-5-5-3-3-3-2-3------------
B--------0-3-3---3---3---3-----------------------------------
G----0-2----------------------------------------------------- 
D--2---------------------------------------------------------
A------------------------------------------------------------
E------------------------------------------------------------

e-------------------------{-------------------}-----------1--
B-------------------------{--this is the part-}-----------0--
G-------------------------{--that i didn't get}-----------0-- 
D-------------------------{-------------------}-----------0--
A-----0-2-2h3h2---0-2-----{-------------------}--3-2-0----2--
E---3-----------3-----3---{-------------------}-----------3--
     
Добавлено: 24.09.2013
Вам также может быть интересно:
Другие материалы по этой песне:
  • Аккорды и текст

Страница создана 24.09.2013
http://primanota.ru/waterdeep/without-you-chords.htm
Привет, Гость.
Предлагаем пройти революционный курс по гитаре.
Подарок от PrimaNota.Ru, забирай!