PrimaNota.ru - самый крупный в мире бесплатный архив песенных текстов, аккордов, табулатур и нот


Water Liars - Backbone - таба, видео

Регистрация Запомнить меня
Войти через:  Facebook Google Twitter Vk Yandex Mail.ru

Water Liars - Backbone - таба, видео

Печатать
Просмотров: 68
-------------------------------------------------------------------------------
                             Backbone - Water Liars
-------------------------------------------------------------------------------
Tabbed by: Endlessducttape
E-mail:

Tuning: Standard


Intro Riff
E|-----------------------------------------------|
B|-----------------------------------------------|
G|--------------------------------------3--------|
D|-----------------------------------------0-----|
A|--------6--3-----------------------------------|
E|--3--5--------4--4--6--4--1--3--3--3--------3--|

Verses (Chords - Figure out timing and play around with picking of chord to get tune by listening)
e|--6----3-------|
B|--6----3-------|
G|--7----4-------|
D|--8----5-------|
A|--8----5-------|
E|--6----3-------|

Bridge (Chords - again listen)
e|-1----6------|
B|-2----7------|
G|-3----8------|
D|-3----8------|
A|-1----6------|
E|-------------|

************************************

| /   slide up
| \   slide down
| h   hammer-on
| p   pull-off
| ~   vibrato
| +   harmonic
| x   Mute note
| b   Bend
| pb  Pre-bend
| br  Bend release
| pbr Pre-bend release
| brb Bend release bend

************************************
Добавлено: 24.12.2015
Вам также может быть интересно:
Другие материалы по этой песне:
  • Аккорды и текст

Страница создана 24.12.2015
http://primanota.ru/water-liars/backbone-chords.htm
Привет, Гость.
Предлагаем пройти революционный курс по гитаре.
Подарок от PrimaNota.Ru, забирай!