PrimaNota.ru - самый крупный в мире бесплатный архив песенных текстов, аккордов, табулатур и нот


Watchtower - Searching for Friends of Peace - аккорды и текст, видео

Регистрация Запомнить меня
Войти через:  Facebook Google Twitter Vk Yandex Mail.ru

Watchtower - Searching for Friends of Peace - аккорды и текст, видео

Печатать
Просмотров: 182
Уроки эстрадного вокала в Санкт-Петербурге
Searching for Friends of Peace
Watchtower
Je - sus   com - mand    - ed:   'Let  the truth be heard.'
1e)---2------0------2----3--------2--------2----0--0-------0-------------------------  
2B)-----------------------------------------------------3----------------------------  
3G)---------------------------------------------------------------------------------- 
 
In sum - mer heat,  on dust- y  roads,  
He let  all hear  Je-ho - vah's word 
1e)---2--2----0-------------------0-------------------0----2----0--2----5----0-------  
2B)----------------3---------3---------3---------3-----------------------------------  
3G)-----------------------2-------------------2-------------------------------------- 
 
He   loved   God's sheep    and    called to ev- 'ry- one 
1e)---2------0------2----3--------2--------2----0--0-------0-------------------------  
2B)-----------------------------------------------------3----------------------------  
3G)---------------------------------------------------------------------------------- 
 
He searched the land from the  sun  -  rise 'til the day was done. 
1e)---2--2----0---------------0--2----7--------5--------2----0--2----5----0----------  
2B)----------------3-----------------------------------------------------------------  
3G)---------------------------------------------------------------------------------- 
 
From door to door and  in  the street, 
We share with ev -'ry - one  we meet 
1e)------3----3--2----2----0----0--------------3----3--2------2----5----0------------  
2B)---3----------------------------3--------3------------------------------3---------  
3G)---------------------------------------------------------------------------------- 

trou-bles  will The news that soon mans      all      be  gone 
1e)------3----3--2----2----0--0---------0--2----0------------------------------------  
2B)---3----------------------------3-------------------------------------------------  
3G)---------------------------------------------------------------------------------- 
 
Search - ing the world For friends of peace in ev - 'ry na - tion, 
1e)---2-------------2--0------------------0----------0---------5------2--0-----------  
2B)------------------------------------------3----3---------3-----------------3------  
3G)--------------2------------------------------------------------------------------- 
 
Search  -  ing to find А  heart in-clined to-ward  sal-va - tion, 
1e)---2-------------2--0------------------0----------0------2--7------5--2----0------  
2B)------------------------------------------3----3----------------------------------  
3G)--------------2------------------------------------------------------------------- 
 
Want   -  ing to leave          No stone    un - turned. 
1e)---2-------------2--0--------------------------0----------------------------------  
2B)----------------------------------------3-------------3---------------------------  
3G)--------------2--------------------2---------------------------------------------- 
 
Verse 2: 
Time  waits    for no      one,     so  the search goes on. 
1e)---2------0------2----3--------2--------2----0--0-------0-------------------------  
2B)-----------------------------------------------------3----------------------------  
3G)---------------------------------------------------------------------------------- 
 
А  mil- lion hearts, a mil- lion lives, 
We give our  all  to save just one. 
1e)---2--2----0-------------------0-------------------0----2----0--2----5----0-------  
2B)----------------3---------3---------3---------3-----------------------------------  
3G)-----------------------2-------------------2-------------------------------------- 
 
Love   is     the force     that    makes us call a- gain. 
1e)---2------0------2----3--------2--------2----0--0-------0-------------------------  
2B)-----------------------------------------------------3----------------------------  
3G)---------------------------------------------------------------------------------- 
 
А  wound- ed  heart can be healed, and  bro- ken lives can mend. 
1e)---2--2----0---------------0--2----7--------5--------2----0--2----5----0----------  
2B)----------------3-----------------------------------------------------------------  
3G)---------------------------------------------------------------------------------- 
 
We search the towns and ci - ty squares,
And when we find some- one who cares, 
1e)------3----3--2----2----0----0--------------3----3--2------2----5----0------------  
2B)---3----------------------------3--------3------------------------------3---------  
3G)---------------------------------------------------------------------------------- 
 
The joy  we feel in - spi-res us   to  go  on. 
1e)------3----3--2----2----0--0---------0--2----0------------------------------------  
2B)---3----------------------------3-------------------------------------------------  
3G)---------------------------------------------------------------------------------- 
 
Search - ing the world For friends of peace in ev - 'ry na - tion, 
1e)---2-------------2--0------------------0----------0---------5------2--0-----------  
2B)------------------------------------------3----3---------3-----------------3------  
3G)--------------2------------------------------------------------------------------- 
 
Search - ing to find А  heart in-clined to-ward  sal-va - tion, 
1e)---2-------------2--0------------------0----------0------2--7------5--2----0------  
2B)------------------------------------------3----3----------------------------------  
3G)--------------2------------------------------------------------------------------- 
 
Want   -  ing to leave          No stone    un - turned. 
1e)---2-------------2--0--------------------------0----------------------------------  
2B)----------------------------------------3-------------3---------------------------  
3G)--------------2--------------------2----------------------------------------------
Добавлено: 05.06.2016
Другие материалы по этой песне:
  • Аккорды и текст

Страница создана 05.06.2016
http://primanota.ru/watchtower/searching-for-friends-of-peace-chords.htm
Привет, Гость.
Предлагаем пройти революционный курс по гитаре.
Подарок от PrimaNota.Ru, забирай!