PrimaNota.ru - самый крупный в мире бесплатный архив песенных текстов, аккордов, табулатур и нот


Watchmen - Lusitana - аккорды и текст, видео

Регистрация Запомнить меня
Войти через:  Facebook Google Twitter Vk Yandex Mail.ru

Watchmen - Lusitana - аккорды и текст, видео

Печатать
Просмотров: 94
Lusitana
Watchmen
-------------------------------------------------------------------------------
                           LUSITANA - The Watchmen
-------------------------------------------------------------------------------
Tabbed by: Pat Malavi
pat.malavi@gmail.com

C  X355XX
D  X577XX
E  X799XX
G  320033
Em 022000

Bass Intro

e|---------------------------------------------------------------------------|
B|---------------------------------------------------------------------------|
G|------------0---------------0---------------0---------------0--------------|
D|--------2-----2---2-----4-----4---4-----0-----0---0-----0-----4------------|
A|----3-3---3-----3--/5-5---5-----5--/7-7---7-----7---7-7---7-----5----------|
E|---------------------------------------------------------------------------|

Fill chords during third line of each verse
     F#           A            Ab 
e|---------------------------------------------------------------------------|
B|---------------------------------------------------------------------------|
G|---11-11-11-11--14-14-14-14--13-13-13-13-----------------------------------|
D|---------------------------------------------------------------------------|
A|---9--9--9--9---12-12-12-12--11-11-11-11-----------------------------------|
E|---------------------------------------------------------------------------|


   C         D             E
So hard when anger's never felt so good
C             D             E
Beauty's only all I want to see
    F#        A             Ab
The windows regardless open everything
C            D               E
Funny how we pass them everyday

 
           C             D                    E
You're the lady with her calves all ripped up into seams
     C             D            E
Your passing by is all I get to see
F#       A                  Ab
Lately I fear it's been too much for me
C           D              E
Funny how I pass her everyday

 
               G            Em
It's just when nothing ever changes
C                 G
Drink the wine it rearranges
G              Em
We'll be lying soon
   C          G
On Lusitana's moon


   C         D                 E
So high when courting comes by in the room
C            D            E
Slavery only not too far away
F#                A                 Ab
You and yours are always trying for everything
C           D              E
Funny how I pass you everyday

 
               G            Em
It's just when nothing ever changes
C                 G
Drink the wine it rearranges
G              Em
We'll be lying soon
   C          G
On Lusitana's moon


            G            Em
I find that nothing ever changes
     C                 G
Just drink the wine it rearranges
G               Em
We'll be crying soon
   C          G
On Lusitana's moon


   C         D             E
So hard when anger's never felt so good
    C             D             E
And beauty's only all I want to see
    F#       A             Ab
The sour Lusitana's ruling everything
    C           D            E
Her body always sadly wraps away
 

               G            Em
It's just that nothing ever changes
C                 G
Drink the wine it rearranges
G              Em
We'll be lying soon
   C          G
On Lusitana's moon


            G            Em
I find that nothing ever changes
     C                 G
Just drink the wine to rearrange us
G               Em
We'll be crying soon
   C          G
On Lusitana's moon


G       Em      C         G
Yeah ee yeah ee yeah ee yeah

Добавлено: 18.11.2013
Другие материалы по этой песне:
  • Аккорды и текст

Страница создана 02.03.2012
http://primanota.ru/watchmen/lusitana-chords.htm
Привет, Гость.
Предлагаем пройти революционный курс по гитаре.
Подарок от PrimaNota.Ru, забирай!