PrimaNota.ru - самый крупный в мире бесплатный архив песенных текстов, аккордов, табулатур и нот


Watchmen - All Uncovered - аккорды и текст, таба, бас-таба, видео

Регистрация Запомнить меня
Войти через:  Facebook Google Twitter Vk Yandex Mail.ru

Watchmen - All Uncovered - аккорды и текст, таба, бас-таба, видео

Печатать
Просмотров: 183
Уроки эстрадного вокала в Санкт-Петербурге
All Uncovered
Watchmen
-------------------------------------------------------------------------------
                         ALL UNCOVERED - The Watchmen
-------------------------------------------------------------------------------
Tabbed by: Pat Malavi
pat.malavi@gmail.com

A   002220
F#m 244222
E   022100
D   x00232
Dbm x46654 

Bass Intro

e|---------------------------------------------------------------------------|
B|---------------------------------------------------------------------------|
G|---------------------------------------------------------------------------|
D|---------------------------------------------------------------------------|
A|-----4-------4--------4-------4--------4-------4--------4------4-----------|
E|--2-----2-2-----2--2-----2-2-----2--2-----2-2-----2--2----2-2-----2--------|

e|---------------------------------------------------------------------------|
B|---------------------------------------------------------------------------|
G|---------------------------------------------------------------------------|
D|---------------------------------------------------------------------------|
A|-----7-------7--------4-------4--------7-------7--------4------4-----------|
E|--5-----5-5-----5--2-----2-2-----2--5-----5-5-----5--2----2-2-----2--------|

e|---------------------------------------------------------------------------|
B|---------------------------------------------------------------------------|
G|---------------------------------------------------------------------------|
D|--------------------------------------------------------7------7-----------|
A|-----7-------7--------4-------4--------2-------------5----5-5-----5--------|
E|--5-----5-5-----5--2-----2-2-----2--0-----0-0--2--0------------------------|


Guitar Riff

e|---------------------------------------------------------------------------|
B|--9--9--9--10p9------------------------------------------------------------|
G|--9--9--9--9----11p9-----------11/13-13-13------9--9-9-9-9/14--14-14-14-14-|
D|--9--9--9--9----9----11p9--11--11----11-11------9--9-9-9-9/14--14-14-14-14-|
A|---------------------------9---9-----9--9-------7--7-7-7-7/12--12-12-12-12-|
E|---------------------------------------------------------------------------|


A                    F#m
Lying in bedrooms is easy
     A                         F#m
It's not like it's five years ago
A                     F#m
Lately you're over my body
       E                            D
'Cause that's just the place that I want you to be


A                           F#m
Look at the pictures you've gotten
             A                     F#m
They're like signals from oncoming cars
      A                          F#m
We're covered and caked from the last time
  E                           D
I know it sounds weird, we collect it in jars
       E                            D
'Cause that's just the place that I wannabe


A                         Dbm
Oh can't you see it's the life I don't need
             F#m                    E
Please don't make this thing up for me
                A
(The way that I wannabe)
A                         Dbm
Oh can't you see it's the life I don't need
             F#m                    E
Please don't make this thing up for me


A                       F#m
Driving in style with a smile on
           A                          F#m
I wish the light could turn red on me now
    A                         F#m
The day's been so damn hard already
   E                   D
So buckle me in on the highway of sin
       E                          D
'Cause that's just the way that I wannabe


A                         Dbm
Oh can't you see it's the life I don't need
             F#m                    E
Please don't make this thing up for me
                A
(The way that I wannabe)
A                         Dbm
Oh can't you see it's the life I don't need
             F#m                    E
Please don't make this thing up for me


                      A     D
Cause that's just the way
                A     D
That's just the way
      A     D
All uncovered
                A          D
That's just the way hey hey


A                       F#m
Driving in style with a smile on
           A                          F#m
I wish the light could turn red on me now
    A                         F#m
The day's been so damn hard already
   E                   D
So buckle me in on the highway of sin
       E                          D
'Cause that's just the way that I wannabe (wannabe)


                      A     D
Cause that's just the way
                A     D
That's just the way
      A     D
All uncovered
                A          D
That's just the way hey hey
Добавлено: 12.08.2015
Другие материалы по этой песне:
  • Аккорды и текст

Страница создана 04.04.2012
http://primanota.ru/watchmen/all-uncovered-chords.htm
Привет, Гость.
Предлагаем пройти революционный курс по гитаре.
Подарок от PrimaNota.Ru, забирай!