PrimaNota.ru - самый крупный в мире бесплатный архив песенных текстов, аккордов, табулатур и нот


Watain - When Heavens End - бас-таба, видео

Регистрация Запомнить меня
Войти через:  Facebook Google Twitter Vk Yandex Mail.ru

Watain - When Heavens End - бас-таба, видео

Печатать
Просмотров: 148
Tabbed by: 6METAL6BASSIST6
E-mail: petergriffinav@gmail.com

Tuning: EADG

0:02

G|------------|
D|------------|
A|10--\-------|
E|------------|

G|------------------------------------------------------------------------------------------------|
D|------------------------------------------------------------------------------------------------|
A|------------2---------------3---3---3---3---3---------------2---------------5---5---5---5---5---|
E|0---0---0-------0---0---0-----------------------0---0---0-------0---0---0-----------------------|

G|------------------------------------------------------------------------------------------------|
D|------------------------------------------------------------------------------------------------|
A|------------2---------------3---3---3---3---3---2---2---2---2---2---2---2---2---2---2---2---2---|
E|0---0---0-------0---0---0-----------------------------------------------------------------------|

G|------------------------------------------------------------------------------------------------|
D|------------------------------------------------------------------------------------------------|
A|3---3---3---3---3---3---------------------------------------2---------------3---3---3---3---3---|
E|------------------------3---3---3---3---3---3---0---0---0-------0---0---0-----------------------|

G|------------------------------------------------------------------------------------------------|
D|------------------------------------------------------------------------------------------------|
A|------------2---------------5---5---5---5---5---------------2---------------3---3---3---3---3---|
E|0---0---0-------0---0---0-----------------------0---0---0-------0---0---0-----------------------|

G|------------------------------------------------------------------------------------------------|
D|------------------------------------------------------------------------------------------------|
A|2---2---2---2---2---2---2---2---2---2---2---2---2---2---2---2---2---2---3---3---3---3---3---3---|
E|------------------------------------------------------------------------------------------------|

G|------------------------|
D|------------------------|
A|------------------------|
E|3---3---3---3---3---3---|

Repeat from the start.




0:57

G|------------------------------------------------------------------------------------------------|
D|------------------------------------------------------------------------------------------------| x6
A|------------------------------------------------------------------------8---8---8---7---7---7---|
E|5---5---5---5---5---5---3---3---3---3---3---3---5---5---5---5---5---5---------------------------|

G|----------------------------------------------------------------|
D|----------------------------------------------------------------| x3
A|7---7---7---7---7---7---7---7---7---7---7---7---10--10--10--10--|
E|----------------------------------------------------------------|

G|----------------------------------------------------------------|
D|----------------------------------------------------------------|
A|7---7---7---7---7---7---7---7---7---7---7---7-------------------|
E|------------------------------------------------8---8---7---7---|

G|----------------------------------------------------------------|
D|----------------------------------------------------------------| x3
A|7---7---7---7---7---7---7---7---7---7---7---7---10--10--10--10--|
E|----------------------------------------------------------------|

G|----------------------------------------------------------------|
D|----------------------------------------------------------------|
A|7---7---7---7---7---7---7---7---7---7---7---7-------------------|
E|------------------------------------------------8---8---7---7---|

1:53

G|------------------------------------------------------------------------------------------------|
D|------------------------------------------------------------------------------------------------| x4
A|------------------------------------------------------------------------8---8---8---7---7---7---|
E|5---5---5---5---5---5---3---3---3---3---3---3---5---5---5---5---5---5---------------------------|

G|----------------------------------------------------------------|
D|----------------------------------------------------------------|
A|9---------------------------------------------------------------|
E|----------------------------------------------------------------|

G|----------------------------------------------------------------|
D|----------------------------------------------------------------|
A|8---8---8---8---8---8---8---8---8---8---8---8---8---8---8---8---|
E|----------------------------------------------------------------|

G|----------------------------------------------------------------|
D|----------------------------------------------------------------| x2
A|7---7---7---7---7---7---7---7---7---7---7---7---7---7---7---7---|
E|----------------------------------------------------------------|

G|----------------------------------------------------------------|
D|----------------------------------------------------------------|
A|9---9---9---9---9---9---9---9---9---9---9---9---9---9---9---9---|
E|----------------------------------------------------------------|

G|----------------------------------------------------------------|
D|----------------------------------------------------------------|
A|8---8---8---8---8---8---8---8---8---8---8---8---8---8---8---8---|
E|----------------------------------------------------------------|

G|----------------------------------------------------------------|
D|----------------------------------------------------------------| x2
A|7---7---7---7---7---7---7---7---7---7---7---7---7---7---7---7---|
E|----------------------------------------------------------------|

G|----------------------------------------------------------------|
D|----------------------------------------------------------------|
A|9---9---9---9---9---9---9---9---9---9---9---9---9---9---9---9---|
E|----------------------------------------------------------------|

G|----------------------------------------------------------------|
D|----------------------------------------------------------------|
A|8---8---8---8---8---8---8---8---8---8---8---8---8---8---8---8---|
E|----------------------------------------------------------------|

G|----------------------------------------------------------------|
D|----------------------------------------------------------------| x2
A|7---7---7---7---7---7---7---7---7---7---7---7---7---7---7---7---|
E|----------------------------------------------------------------|

2:53

G|----------------------------------------------------------------|
D|--------------------------------11--11--11--11--11--11--11--11--|
A|9---9---9---9---9---9---9---9-----------------------------------|
E|----------------------------------------------------------------|

G|----------------------------------------------------------------|
D|----------------------------------------------------------------|
A|8---8---8---8---8---8---8---8---8---8---8---8---8---8---8---8---|
E|----------------------------------------------------------------|

G|----------------------------------------------------------------|
D|----------------------------------------------------------------| x2
A|7---7---7---7---7---7---7---7---7---7---7---7---7---7---7---7---|
E|----------------------------------------------------------------|

3:05

G|----------------------------------------------------------------|
D|----------------------------------------------------------------| x3
A|7---7---7---7---7---7---7---7---7---7---7---7---10--10--10--10--|
E|----------------------------------------------------------------|

G|----------------------------------------------------------------|
D|----------------------------------------------------------------|
A|7---7---7---7---7---7---7---7---7---7---7---7-------------------|
E|------------------------------------------------8---8---7---7---|

G|----------------------------------------------------------------|
D|----------------------------------------------------------------| x3
A|7---7---7---7---7---7---7---7---7---7---7---7---10--10--10--10--|
E|----------------------------------------------------------------|

G|----------------------------------------------------------------|
D|----------------------------------------------------------------|
A|7---7---7---7---7---7---7---7---7---7---7---7---7---\-----------|
E|----------------------------------------------------------------|

3:31

G|----------------------------------------------------------------|.
D|----------------------------------------------------------------|.
A|4---4---4---4---4---4---4-----------------------------------5---|.
E|----------------------------5---7---7---7---7---7---7---7-------|.
                                                                   . x6
G|----------------------------------------------------------------|.
D|----------------------------------------------------------------|.
A|4---4---4---4---4---4---4-----------------------------------5---|.
E|----------------------------5---5---5---5---3---3---3---3-------|.

4:13

G|------------------------------------------------------------------------------------------------|
D|------------------------------------------------------------------------------------------------|
A|------------2---------------3---3---3---3---3---------------2---------------5---5---5---5---5---|
E|0---0---0-------0---0---0-----------------------0---0---0-------0---0---0-----------------------|

G|------------------------------------------------------------------------------------------------|
D|------------------------------------------------------------------------------------------------|
A|------------2---------------3---3---3---3---3---2---2---2---2---2---2---2---2---2---2---2---2---|
E|0---0---0-------0---0---0-----------------------------------------------------------------------|

G|------------------------------------------------------------------------------------------------|
D|------------------------------------------------------------------------------------------------|
A|3---3---3---3---3---3---------------------------------------2---------------3---3---3---3---3---|
E|------------------------3---3---3---3---3---3---0---0---0-------0---0---0-----------------------|

G|------------------------------------------------------------------------------------------------|
D|------------------------------------------------------------------------------------------------|
A|------------2---------------5---5---5---5---5---------------2---------------3---3---3---3---3---|
E|0---0---0-------0---0---0-----------------------0---0---0-------0---0---0-----------------------|

G|------------------------------------------------------------------------------------------------|
D|------------------------------------------------------------------------------------------------|
A|2---2---2---2---2---2---2---2---2---2---2---2---2---2---2---2---2---2---3---3---3---3---3---3---|
E|------------------------------------------------------------------------------------------------|

G|------------------------|
D|------------------------|
A|------------------------|
E|3---3---3---3---3---3---|

G|------------------------------------------------------------------------------------------------|
D|------------------------------------------------------------------------------------------------|
A|------------2---------------3---3---3---3---3---------------2---------------5---5---5---5---5---|
E|0---0---0-------0---0---0-----------------------0---0---0-------0---0---0-----------------------|

G|------------------------------------------------------------------------------------------------|
D|------------------------------------------------------------------------------------------------|
A|------------2---------------3---3---3---3---3---2---2---2---2---2---2---2---2---2---2---2---2---|
E|0---0---0-------0---0---0-----------------------------------------------------------------------|

G|------------------------------------------------------------------------------------------------|
D|------------------------------------------------------------------------------------------------|
A|3---3---3---3---3---3---------------------------------------2---------------3---3---3---3---3---|
E|------------------------3---3---3---3---3---3---0---0---0-------0---0---0-----------------------|

G|------------------------------------------------------------------------------------------------|
D|------------------------------------------------------------------------------------------------|
A|------------2---------------5---5---5---5---5---------------2---------------3---3---3---3---3---|
E|0---0---0-------0---0---0-----------------------0---0---0-------0---0---0-----------------------|

G|------------------------------------------------------------------------------------------------|
D|------------------------------------------------------------------------------------------------|
A|2---2---2---2---2---2---2---2---2---2---2---2---2---2---2---2---2---2---3---3---3---3---3---3---|
E|------------------------------------------------------------------------------------------------|

G|------------------------------------------------------------------------------------------------|
D|------------------------------------------------------------------------------------------------|
A|------------------------------------------------------------------------------------------------|
E|3---3---3---3---3---3---0-----------------------------------------------------------------------|
Добавлено: 16.08.2015
Вам также может быть интересно:
Другие материалы по этой песне:
  • Аккорды и текст

Страница создана 16.08.2015
http://primanota.ru/watain/when-heavens-end-chords.htm
Привет, Гость.
Предлагаем пройти революционный курс по гитаре.
Подарок от PrimaNota.Ru, забирай!