PrimaNota.ru - самый крупный в мире бесплатный архив песенных текстов, аккордов, табулатур и нот


Watain - The Serpents Chalice - текст песни, таба, бас-таба, видео

Регистрация Запомнить меня
Войти через:  Facebook Google Twitter Vk Yandex Mail.ru

Watain - The Serpents Chalice - текст песни, таба, бас-таба, видео

Печатать
Просмотров: 154
-------------------------------------------------------------------------------
                         The Serpents Chalice - Watain
-------------------------------------------------------------------------------

Tuning: E A D G B E

Intro (2x)
e|------------------------------------------------------|
B|------------------------------------------------------|
G|------------------------------------------------------|
D|-----------------------------10-10-10-10-10-10-10-10--|
A|-7-7-7-7-9-9-9-9-10-10-10-10--------------------------|
E|------------------------------------------------------|

e|---------------------------------------------|
B|---------------------------------------------|
G|---------------------------------------------|
D|---------10-10-10-10-8-8-8-8-9-9-9-9-9-9-9-9-|
A|-7-7-7-7-------------------------------------|
E|---------------------------------------------|

e|---------------------------------------------------|
B|---------------------------------------------------|
G|---------------------------------------------------|
D|---------------------------------------------------|
A|-7-7-7-7-9-9-9-9-10-10-10-10-10-10-10-10-10-10-9-9-|
E|---------------------------------------------------|

e|---------------------------------------------|
B|---------------------------------------------|
G|---------------------------------------------|
D|---------------------------------------------|
A|-7-7-7-7-10-10-10-10-9-9-9-9-6-6-6-6-6-6-6-6-|
E|---------------------------------------------|

Bridge To Verse (8x)
e|----------------------------------------------|
B|----------------------------------------------|
G|-9--------12----------10----------13----------|
D|-9--9--9--12--12--12--10--10--10--13--13--13--|
A|-7--7--7--10--10--10--8---8---8---11--11--11--|
E|----------------------------------------------|

Verse (1x)        
e|---------------------------------------------|-------|
B|---------------------------------------------|-------|
G|---------------------------------------------|-------|
D|-7--7----7------7--7----7------7--7----7-----|-8--10-| (3x)
A|-7--7--7---7----7--7--7---7----7--7--7---7---|-8--10-|
E|-5--5--------5--5--5--------5--5--5--------5-|-6--8--|

e|---------------------------------------------|------|
B|---------------------------------------------|------|
G|---------------------------------------------|------|
D|-7--7----7------7--7----7------7--7----7-----|-6--6-| (1x)
A|-7--7--7---7----7--7--7---7----7--7--7---7---|-6--6-|
E|-5--5--------5--5--5--------5--5--5--------5-|-4--4-|

e|---------------------------------------------|-------|
B|---------------------------------------------|-------|
G|---------------------------------------------|-------|
D|-7--7----7------7--7----7------7--7----7-----|-8--10-| (1x)
A|-7--7--7---7----7--7--7---7----7--7--7---7---|-8--10-|
E|-5--5--------5--5--5--------5--5--5--------5-|-6--8--|

e|---------------------------------------------|-----------|
B|---------------------------------------------|-----------|
G|---------------------------------------------|-----------|
D|-7--7----7------7--7----7------7--7----7-----|---8----10-| (1x)
A|-7--7--7---7----7--7--7---7----7--7--7---7---|-8-8-10-10-|
E|-5--5--------5--5--5--------5--5--5--------5-|-6-6-8--8--|

e|---------------------------------------------|-------|
B|---------------------------------------------|-------|
G|---------------------------------------------|-------|
D|-7--7----7------7--7----7------7--7----7-----|-8--10-| (1x)
A|-7--7--7---7----7--7--7---7----7--7--7---7---|-8--10-|
E|-5--5--------5--5--5--------5--5--5--------5-|-6--8--|

e|---------------------------------------------|-------|
B|---------------------------------------------|-------|
G|---------------------------------------------|-8--10-|
D|-7--7----7------7--7----7------7--7----7-----|-8--10-| (1x)
A|-7--7--7---7----7--7--7---7----7--7--7---7---|-6--8--|
E|-5--5--------5--5--5--------5--5--5--------5-|-------|

e|---------------------------------------------|-------|
B|---------------------------------------------|-------|
G|-7--7----7------7--7----7------7--7----7-----|-8--10-|
D|-7--7--7---7----7--7--7---7----7--7--7---7---|-8--10-| (1x)
A|-5--5--------5--5--5--------5--5--5--------5-|-6--8--|
E|---------------------------------------------|-------|

e|---------------------------------------------|-------------------|
B|---------------------------------------------|-------------------|
G|-7--7----7------7--7----7------7--7----7-----|-13-10----12-------|
D|-7--7--7---7----7--7--7---7----7--7--7---7---|-------10----13-11-| (1x)
A|-5--5--------5--5--5--------5--5--5--------5-|-------------------|
E|---------------------------------------------|-------------------|

e|---------------------------------------------|-------|
B|---------------------------------------------|-------|
G|---------------------------------------------|-------|
D|-7--7----7------7--7----7------7--7----7-----|-8--10-| (1x)
A|-7--7--7---7----7--7--7---7----7--7--7---7---|-8--10-|
E|-5--5--------5--5--5--------5--5--5--------5-|-6--8--|

e|---------------------------------------------|------|
B|---------------------------------------------|------|
G|---------------------------------------------|------|
D|-7--7----7------7--7----7------7--7----7-----|-6--6-| (1x)
A|-7--7--7---7----7--7--7---7----7--7--7---7---|-6--6-|
E|-5--5--------5--5--5--------5--5--5--------5-|-4--4-|

Riff 1 (2x)
e|---------3---------7------------------------------------|
B|-----------3---------7----------------------------------|
G|-------------3---------7--------------------------------|
D|-5-----5-------5---------9---9---------8---------8------| (1x)
A|-5---------------5---------9---9--8--8---8--7--8---8--9-|
E|-3------------------------------------------------------|

e|-------------------------------------|
B|-------------------------------------|
G|-------------------------------------|
D|-8-------8--7--8--8---------8--7--8--| (2x)
A|-8-------8--7--8--8---------8--7--8--|
E|-6-6-6-6-6--5--6--6-6-6-6-6-6--5--6--|

Intro (1x)

Riff 2
e|-----------------|-----------------|-----------------|-----------------|
B|-----------------|-----------------|-----------------|-----------------|
G|-2-2-2-2-2-2-2-2-|-3-3-3-3-3-3-3-3-|-8-8-8-8-8-8-8-8-|-7-7-7-7-7-7-7-7-|
D|-2-2-2-2-2-2-2-2-|-3-3-3-3-3-3-3-3-|-8-8-8-8-8-8-8-8-|-7-7-7-7-7-7-7-7-|
A|-0-0-0-0-0-0-0-0-|-1-1-1-1-1-1-1-1-|-6-6-6-6-6-6-6-6-|-5-5-5-5-5-5-5-5-|
E|-----------------|-----------------|-----------------|-----------------|

Riff 3 (2x)
e|-------------------------------------|-------------------------------------|
B|-------------------------------------|-------------------------------------|
G|-----------------------------9-9-9-9-|-------------------------------------|
D|---------9-9-9-9-10-10-10-10---------|-----------------8-8-8-8-11-11-11-11-|
A|-7-7-7-7-----------------------------|-6-6-6-6-9-9-9-9---------------------|
E|-------------------------------------|-------------------------------------|

e|-------------------------------------|---------------------------------------------|
B|-------------------------------------|---------------------------------11-11-11-11-|
G|-----------------------------9-9-9-9-|-8-8-8-8-10-10-10-10-11-11-11-11-------------|
D|---------9-9-9-9-10-10-10-10---------|---------------------------------------------|
A|-7-7-7-7-----------------------------|---------------------------------------------|
E|-------------------------------------|---------------------------------------------|

Intro (2x)

Riff 4 (1x)
                     7x                          6x              2x
e|------------|-----------0-|-0-----------|-----------0-|-----------------|
B|------------|-----0-1-0---|---1-0-1-0---|-----0-1-0---|-----------------|
G|------------|-------------|-----------2-|-------------|-----------------|
D|-2----------|---2---------|-------------|---2---------|-3-3-3-3-3-3-3-3-|
A|-2----------|-0-----------|-------------|-0-----------|-3-3-3-3-3-3-3-3-|
E|-0----------|-------------|-------------|-------------|-1-1-1-1-1-1-1-1-|

End
Base
        3x               1x              2x              1x               1x
e|---------------|---------------|---------------|---------------|-----------------|
B|---------------|---------------|---------------|---------------|-----------------|
G|-2----2-2----2-|---------------|-2----2-2----2-|---------------|-----------------|
D|-2----2-2----2-|-3----3-3----3-|-2----2-2----2-|-3----3-3----3-|-3-3-3-3-3-3-3-3-|
A|-0----0-0----0-|-3----3-3----3-|-0----0-0----0-|-3----3-3----3-|-3-3-3-3-3-3-3-3-|
E|---------------|-1----1-1----1-|---------------|-1----1-1----1-|-1-1-1-1-1-1-1-1-|

Solo (3x)
e|------------------------------------------------------------------|
B|------------------------------------------------------------------|
G|---7--9--------------------------7--9-----------------------------|
D|-7------10----10-9----5--7-----7------10----10--9-----------------|
A|---------------------------------------------------10--8-----8----|
E|------------------------------------------------------------------|

e|------------------------------------------------------------------|
B|-----------------------------------------------8--6--5------------|
G|---7--9--------------------------7--9--5----5-------------5-------|
D|-7------10----10-9----5--7-----7----------------------------------|
A|------------------------------------------------------------------|
E|------------------------------------------------------------------|

e|------------------------------------------------------------------|
B|------------------------------------------------------------------|
G|---7--9-----------------------------------------------------------|
D|-7------10----10-9----5--7-----9--10--10----10--9---7-------------|
A|-------------------------------------------------------8-----8----|
E|------------------------------------------------------------------|

e|--------------------------------------------------8--7----5-------|
B|-----------------------------------------------8------------------|
G|---7--9--------------------------7--9--5----5---------------------|
D|-7------10----10-9----5--7-----7----------------------------------|
A|------------------------------------------------------------------|
E|------------------------------------------------------------------|
Добавлено: 13.12.2015
Другие материалы по этой песне:
  • Аккорды и текст

Страница создана 06.01.2014
http://primanota.ru/watain/the-serpents-chalice-chords.htm
Привет, Гость.
Предлагаем пройти революционный курс по гитаре.
Подарок от PrimaNota.Ru, забирай!