PrimaNota.ru - самый крупный в мире бесплатный архив песенных текстов, аккордов, табулатур и нот


Watain - Night Vision - таба, видео

Регистрация Запомнить меня
Войти через:  Facebook Google Twitter Vk Yandex Mail.ru

Watain - Night Vision - таба, видео

Печатать
Просмотров: 35
-------------------------------------------------------------------------------
        WATAIN-NIGHT VISION-instr. from The Wild Hunt
-------------------------------------------------------------------------------
Tabbed by:NihilView
E-mail:

Tuning:standard E  CLEAN PART!



e|------------7------------7h-8-p-7----------------6-----7----------------|
B|-------8--------------8-----------8-------8------7--------8-------------|INTRO-FIG.A
G|---9---------------9-----------------9-----------8----------------------|
D|------------------------------------------------------------------------|
A|------------------------------------------------------------------------|
E|------------------------------------------------------------------------|


e|---------7-----------7------10-8-7------------7------10-8-7-----6----------------|
B|------8-----------8-----8----------8-------8-----8----------8---7----------------|
G|---9----------9-------------------------9-----------------------8----------------| INTRO FIG.B
D|---------------------------------------------------------------------------------|
A|---------------------------------------------------------------------------------|
E|---------------------------------------------------------------------------------|


e|--------------------0------------------------0-------------------7------------------7--------|
B|-----------------4-----4------------------7-----7-------------8-----8------------8----8------| 
G|--9-----5-----5-----------5------------8-------------------9-------------------9-------------|BRIDGE 1.
D|--9-----5--5------------------------8-------------------9--------------------9---------------|
A|--7--/--3------------------------6-------------------7--------------------7------------------|
E|---------------------------------------------------------------------------------------------|

      

e!----------------------------------------------------------------!
B!----------------------------------------------------------------!
G!----------------------------------------------------------------!BLEAK INTERLUDE 
D!------------------------------------------------9-8vv-----------!
A!--------7---9-10---------7----9-10-9-7-9--6vv-------------------!
E!--0--7-------------0--7-----------------------------------------!



e|---------------------------------------------------------------------------|
B|------------------------------------------------------------6v---5--4-4----| 
G|-------------------------------------------------9--8vv----------4--3-3----| 
D|----------6---8-9-----------6---8-9-8--6-8--5vv------------------5--4-4----|
A|-------6-----------------6-------------------------------------------------|
E|---4-----------------4-----------------------------------------------------|


     
    CLEAN BRIDGE BEGIN AT 1:38                                
e|------------1-----------------1------------------1----------------0-h-3--------3-3--5---5-----|
B|----------------3----------------3------3-----------3-------------------5------5-5--6---6-----|
G|--------------------2---------------3---2--------------3-------------------5------------7-----| 
D|-----0-------------------0--------------0----0------------------------------------------------|
A|--0----------------------0---------------------------------1sl-3------------------------------|
E|----------------------------------------------------------------------------------------------|







************************************

| /   slide up
| \   slide down
| h   hammer-on
| p   pull-off
| ~   vibrato
| +   harmonic
| x   Mute note
| b   Bend
| pb  Pre-bend
| br  Bend release
| pbr Pre-bend release
| brb Bend release bend

************************************
Добавлено: 01.04.2016
Другие материалы по этой песне:
  • Аккорды и текст

Страница создана 01.04.2016
http://primanota.ru/watain/night-vision-chords.htm
Привет, Гость.
Предлагаем пройти революционный курс по гитаре.
Подарок от PrimaNota.Ru, забирай!