PrimaNota.ru - самый крупный в мире бесплатный архив песенных текстов, аккордов, табулатур и нот


Watain - Hymn to Qayin - текст песни, таба, видео

Регистрация Запомнить меня
Войти через:  Facebook Google Twitter Vk Yandex Mail.ru

Watain - Hymn to Qayin - текст песни, таба, видео

Печатать
Просмотров: 53
-------------------------------------------------------------------------------
  WATAIN-HYMN TO QAYIN-from Lawless Darknes 2010 Seasons of Mist
-------------------------------------------------------------------------------
Tabbed by:NihilView



Tuning:STANDARD E     TRANSCRIBED AND FIGURED ONLY LEAD GUITAR SECTION!!


         2X                                         2X
e|------------------------------------------------------------------------------------|INTRO
B|-------------------8----------------------------------------11----------------------|
G|----------9------------9-----9--------------------12-------------12--------12-------|FIG.A
D|-------9------------------9-------11-12-------12----------------------12------------|
A|---7----------7-------------------9--10---10-----------10---------------------------|
E|----------------------------------9--10---------------------------------------------|

         2X                 
                 2X                           2X
e|--------------------------------------------------------------------------------------------|INTRO
B|----------------8----------------------------------7----------------------------8-----------|
G|--------9----------9-----9----------------8-----------8-----8------------9---------9----9---|FIG.B
D|-----9----------------9------11-8------8-----------------8------------9---------------9-----|
A|--7---------7----------------9--6--6----------6--------------------7---------7--------------|
E|-----------------------------9--6-----------------------------------------------------------|



             2X                             2X                                                INTRO-FIG.C
e|--------------------------------------------------------------------------------------------------------|
B|---------------------9------------------------------8--------------------------7------------------------|
G|--11---------10---------10------10-----------9---------9----9-----------8--------8-----8----5-5---9-9---|
D|--11-----10-----------------10------------9---------------9-----11----8-------------8-------5-5---9-9---|
A|--9---8----------8---------------------7---------7--------------9--6--------6---------------3-3---7-7---|
E|----------------------------------------------------------------9--6------------------------------------|


   TREMOLO HARMONY SECTION:
e|------------------------------------------------------------------------------------------------------|
B|------------------------------------------------------------------------------------------------------|
G|--9-9-9-------------------9-9-9----10-10-10------------------10-10-10---9-9-9------------------9-9-9--|
D|---------7-7-7--10-10-10---------------------8-8-8--11-11-11-------------------7-7-7--10-10-10--------|
A|------------------------------------------------------------------------------------------------------|
E|------------------------------------------------------------------------------------------------------|



e|-----------------------------------------------------------------------------------------------------|
B|--------------------------------------------------10-------------11-11-------------------------------|
G|---------------------------------------9-9-10-10-----10-10-9-7----------10-10--9-9-10--9-9-----------|
D|--6-6-6--5-5-5--3-3-3----------7-7--10------------------------------------------------------10-9-10--|
A|-----------------------5-5---------------------------------------------------------------------------|
E|-----------------------------------------------------------------------------------------------------|


e|---------------------------------------------------------------------------|
B|----------------------10---------------------------------------------------|
G|-----------9-9-10-10------10-10-9-7---13-13-13--12-12-12--10-10-10---------|
D|--7-7--10----------------------------------------------------------10------|
A|---------------------------------------------------------------------------|
E|---------------------------------------------------------------------------|


         VERSE:
e|--------------------------------------------------------------------------------------------------|
B|------------8-------------------8-----------------------------------------------------------------|
G|---------9-----9-------------9-----9---------------6-------------------6-----------------2--------|
D|------9-----------9-------9------------9--------8-----8-------------8------8---5-------4----4-----|
A|--7--------------------7---------------9-----8-----------8-------8-------------5-----4---------4--|
E|---------------------------------------7--6-------------------6----------------3--2---------------|


e|------------------------------------------------------------------7-----------------------------|
B|--------------------------------------------------------8------------8--------------------------|
G|-----------2---------------0-------------------------9-----9-----------9-9----------------------|
D|--------4-----4---------2-----2------8---9-8------9-----------9--------------5--4--8-9----------|
A|-----4---------------2-----------2---6---7-6---7-----------------------------3--2--6-7----------|
E|--2---------------0-----------------------------------------------------------------------------|


                                              BREAK!
e!---------------------------------------------------2--------2----------------2--------2---10br--------!
B!-----------5------------------------------------4--------4------3-vv------4--------4------------------!
G!--------5-----5--------------5--4------------3--------3----------------3--------3---------------------!
D!-----5-----------5--4--5-4---5--4--5--2---------------------------------------------------------------!
A!--3-----------------2--3-2---3--2--5--2---------------------------------------------------------------!
E!-----------------------------------3--0---------------------------------------------------------------!


   HARMONY FILL!
e!-----------------------------------------------------------------------------!
B!--/-13---13-12-10-v------10--------------------------------------------------!
G!---------------------12------12--9-vv---11-12-11-9--8vv--9-vv----------------!
D!-----------------------------------------------------------------------------!
A!-----------------------------------------------------------------------------!
E!-----------------------------------------------------------------------------!



e!-------------------------------------------------------------------------------------------!
B!-------------------------------------------------------------------------------------------!CHORUS
G!-------------------------------------------------------------------------------------------!
D!-----------------------------------------12------------------------------------------------!
A!----------7---------9---------10---------------------------2---------3---------2--0--------!
E!--/-12------0-0-0-0---0-0-0-0----0-0-0-0--------1--1-1-1-1---1-1-1-1---1-1-1-1-------------!
            P.M......   .......    ........     P.M.........   .......   ........


e!-------------------------------------------------------------------------------------------!
B!-------------------------------------------------------------------------------------------!
G!-----------------------------------------2-2-2-0-0------2-2-2-0-0--------------------------!
D!----------------------------------9------------------4-------------4------2--4-5-4---------!
A!--7---------9---------10-----------------------------------------------3------------5------!
E!----0-0-0-0---0-0-0-0----0-0-0-0-----------------------------------------------------------!
    P.M......   .......    ........


e!------------------------------------------------------------------------------------------------!
B!------------------------------------------------------------------------------------------------!
G!------------------------------------------------------------------------------------------------!BRIDGE
D!--7-7---5-4-------2--2-4-5-------2---2-4-5-5--4-4--4-5-4----7-7---5-4-------------4-4--4-5-4----!
A!--5-5---3-2-2-2---0--0-2-3-2-2---0---0-2-3-3--2-2--2-3-2----5-5---3-2-2-2--5---5--2-2--2-3-2----!
E!------------0-0------------0-0----------------------------------------0-0--3-0-3----------------!


AFTER BRIDGE PLAY:CHORUS
                   VERSE

        
      3X                                     3X
e!----------------------------------------------------------------------------------------!
B!----------7--------------------8--------------------7--------------------6--------------!
G!-------8-----8--------------9----9---------------8-----8--------------7------7----------! INTERLUDE!
D!----8-----------8--------9----------9---------8-----------8--------7------------7-------!
A!-6--------------------7--------------------6--------------------5-----------------------!
E!----------------------------------------------------------------------------------------!


     3X
!--------------------------------------------------------------------------------------------------------!
!--------------------------------------------------------------------------------------------------------!
!------------15------------------15-16----------------15-----------------14-----------------13-----------!
!---13-15-16----16-15---13-15-16-------16----13-15-16----16-15--13-15-16----16-15--13-15-16----16-15-----!
!--------------------------------------------------------------------------------------------------------!
!--------------------------------------------------------------------------------------------------------!

                 repeat bar from above!
!--------------------------------------------------------------------------------!
!--------------------------------------------------------------------------------!
!--------------------------15----------------------------------------------------!
!--4-------------13-15-16-----16-15-------4-----------8-9-8vv--8/7-7-/-4-4-/-1---!
!--2---5--4-------------------------------2---5--4-------------------------------!
!------3--2-----------------------------------3--2-------------------------------!


FOR END OF SONG PLAY BRIDGE!

THATS ALL! ENJOY AND HAVE FUN WITH THIS GREAT BLACK METAL NUMBER!!





************************************

| /   slide up
| \   slide down
| h   hammer-on
| p   pull-off
| vv  vibrato
| +   harmonic
| x   Mute note
| b   Bend
| pb  Pre-bend
| br  Bend release
| pbr Pre-bend release
| brb Bend release bend

************************************
Добавлено: 01.04.2016
Другие материалы по этой песне:
  • Аккорды и текст

Страница создана 17.08.2013
http://primanota.ru/watain/hymn-to-qayin-chords.htm
Привет, Гость.
Предлагаем пройти революционный курс по гитаре.
Подарок от PrimaNota.Ru, забирай!